Acordes de Guitarra » J »JAS » Ya no quiero más ska (Tab)

Ya no quiero más ska
JAS

  • Letra y Acordes
    Em - G (x2)
    Am - Em - Am - Bm
    
    
                   Em
    Yo no quiero ver tu cara
                   G
    Solo muéstrame tu cuerpo
                     Am
    No hace falta que sonrías
                Bm
    Hace falta lo demás
    
    
                   Em
    Pero entiende mi lamento
                  G
    No me pongas un señuelo
                     Am
    ¿Tú que sabes de esas cosas?
    
  • Tablatura
    e-I-----------------------------------------------------I
    B-I-12---12-12-12----------------------------12-12-12---I
    G-I---------------14-12-------12----12----14------------I
    D-I---------------------14-14----14----14---------------I
    A-I-----------------------------------------------------I
    E-I-----------------------------------------------------I
    
    e-I---------------------------------------------------------------------------I
    B-I-12-15-12-15-12-11----12-11----12-11----12-11---12-12-12-12-12-12-12-12-12-I
    G-I------------------15-------15-------15-------15----------------------------I
    D-I---------------------------------------------------------------------------I
    A-I---------------------------------------------------------------------------I
    E-I---------------------------------------------------------------------------I
    
    e-I-15-15-15-15---15-12----12-----------------------------------I
    B-I---------------------15------12-15-12-15-12--12--15--12------I
    G-I-------------------------------------------------------------I
    D-I-------------------------------------------------------------I
    A-I-------------------------------------------------------------I
    E-I-------------------------------------------------------------I
    
  • Tab p/Bajo
    YA NO QUIERO MÁS SKA
    JAS
    TAB DE BAJO POR ROSABETH
    
    
    > INTRO
    
      MIm
    G|------------------------------------|
    D|------------------------------------|
    A|------2------2------2--------2------|
    E|--0-3----0-3----0-3----0-2-3--------|
    
      SOL
    G|------------------------------------|
    D|------------------------------------|
    A|--------------------------------2---|
    E|--3-3-3-3-3-3-3-3-3-3-3-3-3-1-3-----|
    
    (X2)
    
    > INTRO 2
    
      LAm
    G|------------------------------------|
    D|------2------2------2--------2------|
    A|--0-3----0-3----0-3----0-2-3--------|
    E|------------------------------------|
    
      MIm
    G|------------------------------------|
    D|------------------------------------|
    A|------2------2------2--------2------|
    E|--0-3----0-3----0-3----0-2-3--------|
    
      LAm
    G|------------------------------------|
    D|------2------2------2--------2------|
    A|--0-3----0-3----0-3----0-2-3--------|
    E|------------------------------------|
    
      SIm
    G|------------------------------------|
    D|--------------------------------
  • +
    ¡Colabora con nosotros!
    Envíanos tu versión de esta canción

Letra de Ya no quiero más ska
Yo no quiero ver tu cara
No hace falta que sonrías
Hace falta lo demás
Pero entiende mi lamento
No me pongas un señuelo
¿Tú que sabes de esas cosas?
¿No te ha hablado tu mamá?
Yo no quiero que me olvides
Ni tampoco que me obligues
Tus temores infantiles
Yo los quiero destrozar
Compréndeme
Cada vez estoy más tenso
Suplicaré
Nena crece por favor
¡¡¡Aaaaay!!!
Yo no quiero ir a tu fiesta
Ni tampoco a discotecas
Si me enchufan a tu hermana
No nos dejan libertad
Compréndeme
Cada vez estoy más tenso
Suplicaré
Ya no quiero más ska... ¡Ska!

Video de Ya no quiero más ska
[]



© LaCuerda.net · aviso legal · privacidad · contacto