Acordes de Guitarra » J »Jarabe de Palo » Agua (Tab)

Agua
Jarabe de Palo

Letras, Acordes y Tabs para Guitarra, Bajo y Ukulele

  • REm7                  SOLm7
    Como quieres ser mi amiga
    DO7            FA
    si por ti daría la vida,
    REm7            SOLm7
    si confundo tu sonrisa
    DO7            FA
    por camelo si me miras.
    REm7      SOLm7 DO7     FA
    Razón y piel, difícil mezcla,
    REm7      SOLm7 DO7    FA
    agua y sed, serio problema.
    
    Como quieres ser mi amiga
    si por ti me perdería
    si confundo tus caricias
    por camelo si me mimas.
    Pasión y ley, difícil mezcla,
    agua y sed, serio problema.
    
    
  •          Dm7                           G7 
    I(e)  -|-------1-------------1-------|-------1---------------| 
    II(B) -|---1-----------------------3-|---2-------------1_2-2-| 
    III(G)-|-----2-----------0_2-----2---|-----0-----------------| 
    IV(D) -|-0---------------------------|-----------------------| 
    V(A)  -|-----------------------------|-----------------------| 
    VI(E) -|-----------------------------|-3---------------------| 
      
    
             C                              F 
    I(e)  -|-------0---------------------|-------1---------1---0-| 
    II(B) -|---1-------------------1---3-|---1-------------------| 
    III(G)-|-----0-----------------------|-----2-----------------| 
    IV(D) -|-----------------------------|-----------------------| 
    V(A)  -|-3---------------------------|-----------------------| 
    VI(E) -|-----------------------------|-1---------------------| 
    
    (Seguir haciendo la Parte I aún cuando empiece a cantar hasta el estribillo) 
    
    Dm                                  G 
    
  • e||------------|-------|--------|---------|
    B||------6-----|-------|--------|-5h6h5/6-|
    G||----------7-|-5h7p5-|-5h7----|---------|
    D||-6/7----7---|-------|-----/7-|---------|
    A||------------|-------|--------|---------|
    E||------------|-------|--------|---------|
    
    
    e||--------------------|----------------------|------------|
    B||-6/8p6-----6h8--6/8-|----6-8--8/10--8h6--6-|-6--8--10---|
    G||--------7-----------|-7--------------------|-7--9--10---|
    D||--------------------|----------------------|------------|
    A||--------------------|----------------------|------------|
    E||--------------------|----------------------|------------|
    
    
    
    Guitarra 2
    
          Dm7        Gm        C7       F
    
  • LA SIbmologia viene Abajo.
    
    Acordes a utilizar:
    
      Dm7  Gm7  C7  F   A#  Dm ó  A
    |-1----3----3---1---1---1--5---0---|
    |-1----3----5---1---3---3--6---2---|
    |-2----3----3---2---3---2--7---2---|
    |-0----3----5---3---3---0--7---2---|
    |-x----5----3---3---1---x--5---0---|
    |-x----3----3---1---1---x--5---x---|
    
       Dm7                    Gm7               C7                 F
    e||-------1-|------------|---------|-------|---------|--------|---------|
    B||---1-----|------6-----|-------3-|-------|-------5-|--------|-------1-|
    G||-----2---|----------7-|---3-----|-5h7p5-|---3-----|-5h7----|---2-----|
    D||-0-------|-6/7----7---|-----3---|-------|-----5---|-----7~-|-----3---|
    A||---------|------------|---------|-------|-3-------|--------|---------|
    E||---------|------------|-3-------|-------|---------|--------|-1-------|
                Dm7      Gm7                             C7
    
  • e||-------1-|------------|---------|-------|-------0-|--------|---------|
    B||---1-----|------------|---1---3-|-------|---1-----|--------|---0---1-|
    G||-----2---|------------|-----2---|-------|-----2---|--------|-----2---|
    D||-2-------|-7/9-10---7-|-0-------|-5h7p5-|-2-------|-5h7----|-2-------|
    A||---------|--------7---|---------|-------|---------|-----7~-|---------|
    E||---------|------------|---------|-------|---------|--------|---------|
    
    e|-----------|-------1-|---------------------|---------|-----------------------|
    B|-----------|---1-----|---------------------|---1---3-|-----------10----------|
    G|-9h10h9-10-|-----2---|/12-10-9-10-12-10/12-|-----2---|-(9)-10-12----10h12p10-|
    D|-----------|-2-------|---------------------|-0-------|-----------------------|
    A|-----------|---------|---------------------|---------|-----------------------|
    E|-----------|---------|---------------------|---------|-----------------------|
    
    e|-------0-|--------||
    B|---1-----|-6-8-10-||
    G|-----2---|-7-9-10-||
    D|-2-------|--------||
    A|---------|--------||
    E|---------|--------||
    
  • INTRO
    T |----O-------O---|----O-------O-O-|
    B |o--o---oo--o----|o--o---oo--o----|
       1 + 2 + 3 + 4 +  1 + 2 + 3 + 4 +
    
    T |----O-------O---|----O-------O---|----O-------O---|----O-----O---O-|
    B |o--o---oo--o---o|o--o---oo--o----|o--o---oo--o----|o--o---oo---o---|
       1 + 2 + 3 + 4 +  1 + 2 + 3 + 4 +  1 + 2 + 3 + 4 +  1 + 2 + 3 + 4 +
    
    T |----O-------O---|----O-------O---|----O-------O---|----O-------O-O-|
    B |o--o---oo--o----|o--o----o--o----|o--o---oo--o---o|o--o---oo--o----|
       1 + 2 + 3 + 4 +  1 + 2 + 3 + 4 +  1 + 2 + 3 + 4 +  1 + 2 + 3 + 4 +
    
    1ER VERSO
    T |----O-------O---|----O-------O---|----O-------O---|----------------|
    B |o--o----o--o----|o--o---oo--o----|o--o----o--o----|o---o--oo--oo---|
       1 + 2 + 3 + 4 +  1 + 2 + 3 + 4 +  1 + 2 + 3 + 4 +  1 + 2 + 3 + 4 +
    
    T |----O-------O---|----O-------O---|----O-------O---|-------o--o---o-|
    B |o--o----o--o----|o--o---oo--o----|o--o----o--o----|o---o---o---o---|
       1 + 2 + 3 + 4 +  1 + 2 + 3 + 4 +  1 + 2 + 3 + 4 +  1 + 2 + 
  • +
    ¡Colabora con nosotros!
    Envíanos tu versión de esta canción
  • Tutorial
    HD
    Como tocar AGUA - Jarabe de Palo TUTORIAL Guitarra Acordes y TABS
    6:10
  • Tutorial
    HD
    Cómo tocar AGUA de JARABE DE PALO
    Cómo tocar #21
    5:13
  • Tutorial
    HD
    Como Tocar Agua Jarabe De Palo En Guitarra
    7:05
  • Tutorial
    HD
    Como tocar Agua - Jarabe de Palo

    Acordes y Tablatura
    9:33

Letra de Agua
Guitarra 2
la primera estrofa se hace con el arpejio anterior
ESTROFA
Còmo quieres ser mi amiga
si por ti darìa la vida,
si confundo tu sonrisa
por camelo si me miras.
razòn y piel,
difìcil mezcla,
agua y sed,
serio problema.
Acá empieza
el rasgueo
⇣ ⇡ ⇟ ⇡ ⇡ ⇟ ⇡
Còmo quieres ser mi amiga
si por ti me perderia,
si confundo tus caricias
por camelo si me mimas.
pasiòn y ley,
difìcil mezcla,
agua y sed,
serio problema…
Cuando uno tiene sed
pero el agua no està cerca,
cuando uno quiere beber
pero el agua no està cerca.
PRECORO
Què hacer, tù lo sabes,
conservar la distancia,
renunciar a lo natural,
y dejar que el agua corra.
ESTROFA
Còmo vas ser mi amiga
cuando esta carta recibas,
un mensaje hay entre lìneas,
còmo quieres ser mi amiga.
Cuando uno tiene sed
pero el agua no està cerca,
cuando uno quiere beber
pero el agua no està cerca.




[Agua chords][Agua cifra]
© LaCuerda.net · aviso legal · privacidad · es · en · pt · contacto