Acordes de Guitarra » J »Jaime Murrell » Golpe de espada (Tab)

Golpe de espada
Jaime Murrell

  • Letra y Acordes
    Em-D-Em-C-D
    
               Em              D
    Golpe de espada, es la alabanza
    
               C         D         Em
    Golpe de guerra que salen de Dios
    
                Em                D
    Cantos de gloria traen la victoria
    
             C          D         Em
    En la batalla del pueblo de Dios
    
    
    CORO:
    
            G            C         D
    Y cada golpe de la espada de Dios
    
    
  • Tab p/Bajo
    INTRO: ÓRGANO 4  TIEMPO:
    
    ES TODO SLAP NADA DE DEDOS
    
    G:----99---------7-----
    D:------------5--------
    A:-7------7------------
    E:--------------------
    
    
    G:-----9-9--7-9------
    D:--------------------
    A:-7------------------
    E:--------------------
    
    G:----99---------7-----
    D:------------5--------
    A:-7------7------------
    E:---------------------
    
    G:---------9 9 8 9-----
    D:---------------------
    A:--7------------------
    E:---------------------
    
    COMIENZO DE CANCIÓN:
    
    GOLPE DE ESPADA:
    G:-------9-9---------------7-----
    D:-------------------5--------
    A:--7----------7--------------
    E:---------------------------
    
    
    
    G:--------9-9-9-7--------
    D:-----------------------
    A:---7------------------
    E:----------------------
    
    
    G:-5-5------5-7----------
    D:------7----------------
    A:----------------5------
    E:----------------------
    
    
    
    G:---9-9------------9------------
    D:---------------------------
    A:-7------9-----7---------------
    E:---------------------------
    
    CORO:
    Y CADA GOLPE…
    G:--------------------------------
  • +
    ¡Colabora con nosotros!
    Envíanos tu versión de esta canción

Letra de Golpe de espada
Golpe de espada, es la alabanza
Golpe de guerra que salen de Dios
Cantos de gloria traen la victoria
En la batalla del pueblo de Dios
Y cada golpe de la espada de Dios
Es con pandero, con trompeta y tambor
Será con cantos de jubilo, cantos de júbilo
Será con cantos de jubilo, cantos de júbilo



© LaCuerda.net · aviso legal · privacidad · contacto