Acordes de Guitarra » J »Jaime del Río » Oh Cochabamba querida (Tab)

Oh Cochabamba querida
Jaime del Río

Letras, Acordes y Tabs para Guitarra, Bajo y Ukulele

  • E|-0-5-4-5-3-2-3-1-|-5-8-7-5-3-2-5-0-|-0-2-4-5-0-------|
    B|-----------------|-----------------|-----------2-3-0-|
    G|-----------------|-----------------|-----------------|
    D|-----------------|-----------------|-----------------|
    A|-----------------|-----------------|-----------------|
    E|-----------------|-----------------|-----------------|
    
    E|-------0-5-0-----|-0-5-4-5-3-2-3-1-|-5-8-7-5-3-2-5-0-|
    B|-0-2-3-------3-1-|-----------------|-----------------|
    G|-----------------|-----------------|-----------------|
    D|-----------------|-----------------|-----------------|
    A|-----------------|-----------------|-----------------|
    E|-----------------|-----------------|-----------------|
    
    E|-0-2-4-5-0-------|-------0-5-0-----|
    B|-----------2-3-0-|0-2-3-------3-1--|
    G|-----------------|-----------------|
    D|-----------------|-----------------|
    A|-----------------|-----------------|
    E|-----------------|-----------------|
    
  • +
    ¡Colabora con nosotros!
    Envíanos tu versión de esta canción

Letra de Oh Cochabamba querida
Rasgueo
x | x x
| | x |
| | x |
| | x |
| x x |
Oh, Cochabamba querida
ciudad de mágico encanto
te doy entera mi vida
en este mi humilde canto
Hermosa tierra valluna
de verdor inigualable
tienen tus noches de luna
un encanto incomparable
Y si de nuevo algún día
me alejo de Ti Oh Tunari
no te olvides tierra mía
de este humilde taquirari
El rio rocha turbión
pinta tu hermoso verdor
pueblo que eres de Bolivia
su vida y su corazón
Cualquier duda a mi correo electrónico kekos@hotmail.es

Video de Oh Cochabamba querida
[]




[Oh Cochabamba querida chords][Oh Cochabamba querida cifra]
© LaCuerda.net · aviso legal · privacidad · es · en · pt · contacto