Acordes de Guitarra » I »Inti Illimani » Mis Llamitas (Tab)

Mis Llamitas
Inti Illimani

Letras, Acordes y Tabs para Guitarra, Bajo y Ukulele

  • A)
    
     E: ---0000000000000000000000000000000000000000000-
     B: -----------------------------------------------
     G: -----------------------------------------------
     D: ----------0---2---2---2---0--------------------
     A: --0---3-----------------------3---0---0---0---0
     E: -----------------------------------------------
            (CHARANGO)...
    
    B)
    
    
    
     E: -55555555555555555555555522222222222
     B: ---------6-------6---------------3--
     G: -----5-------5-------5-------2------
     D: -7-----------------------0----------
     A: ------------------------------------
     E: ------------------------------------
    
  • +
    ¡Colabora con nosotros!
    Envíanos tu versión de esta canción

Letra de Mis Llamitas
(CHARANGO)...
22222555555550000000000000003333333333333333-
DESPUES DEL CHARANGO VIENE ESTO:
-3-0-3-5-7-5-3-0-3-5-7-5-3-0-3-5-7-5-4h-3h-2h-
ESTO HAGANLO COM LA MANO APOYADA
EN EL PUENTE TOCANDO LAS
CUERDAS PARA MENOR OSCILACION DE LAS CUERDAS
AHORA VIENE EL TRINO DEL CHARANGO ..:
AHÍ SE ARPEGIAN LAS SIGUIENTES NOTAS:
SE MANTIENEN EN: LAm , Y COMIENZAN A RASGUEAR
LA GUITARRA CON UN APAÑADO SUABE,
MIENTRAS EL CHARANGO HACE
LO SUYO VAN LAS SIGUIENTES NOTAS :
DESPUES DEL RASGUEADO RAPIDA MENTE VIENE ESTO:
DESPUES QUE EL CHARANGO HACE LO SUYO VIENE ESTO:
EL CHARANGO EMPIEZA A HACER UNA MELODIA
Y LA GUITARRA RASGUEA CON LAS NOTAS
LO SIGUE CON UNA PERCUSIÓN GOLPEADA EN LAS CUERDAS AL
LADO DEL PUENTE (LE DA UN SONIDO MÁS GRAVE)
AL FINAL DE LA CANCION LA GUITARRA HACE
LA PARTE "D)" QUE EXPLIQUE Y LUEGO LA PARTE
"E)" JUNTO CON EL
CHARANGO Y TERMINA : Am-E-Am-E-AmAmAm...
QUE LA DISFRUTEN!!!




[Mis Llamitas chords][Mis Llamitas cifra]
© LaCuerda.net · aviso legal · privacidad · es · en · pt · contacto
DINAMICO