Acordes de Guitarra » I »Inti Illimani » La Partida (Tab)

La Partida
Inti Illimani

Letras, Acordes y Tabs para Guitarra, Bajo y Ukulele

  • E|--------2-------2-------2-------2--|-------3-------3-------3-------3-
     A|----0-------0-------0-------0-----|----0-------0-------0-------0----
     E|----------------------------------|---------------------------------
     C|------2-------2-------2-------2---|------0-------0-------0-------0--
     G|--0-------0-------0-------0-------|--0-------0-------0-------0------
    
     --------2-------2-------2-------2-|--------3-------3-------3-------3-|
     ----0-------0-------0-------0-----|----0-------0-------0-------0-----|
     ----------------------------------|----------------------------------|
     ------2-------2-------2-------2---|------0-------0-------0-------0---|
     --0-------0-------0-------0-------|--0-------0-------0-------0-------|
    
    
     --------0-------0-------0-------0-|--------0-------0-------0-------0-|
     ----1-------1-------1-------1-----|----2-------2-------2-------2-----|
     ----------------------------------|----------------------------------|
     ------2-------2-------2-------2---|------3-------3-------3-------3---|
     --0-------0-------0-------0-------|--0-------0-------0-------0-------|
    
    
    
  • Em7+/G*          A*- A/G#*- Am*           C*- C7+*        Em7+/G*      ...* acordes de charango
    ---------------|---------------------------------|-----------------
    ------3-5---3--|--2------------------------------|-----------------
    ----------4----|----2--------2-----2-4-0---------|--2-4-0----------
    --2------------|-------------------------4-2-----|--------4-2------
    ---------------|---------------------------------|-----------------
    ---------------|---------------------------------|-----------------
    
    Em7+/G*          A*- A/G#*- Am*           C*- C7+*        Am*              Em7+/G*
    ---------------|---------------------------------|-----------------|-----------------
    ------3-5---3--|--2------------------------------|-----------------|-----------------
    ----------4----|----2--------2-----2-4-0---------|--2-4-0----------|--2-4-0----------
    --2------------|-------------------------4-2-----|--------4-2------|--------4-2------
    ---------------|---------------------------------|-----------------|-----------------
    ---------------|---------------------------------|-----------------|--------- 
    Guitarra entra: Em
    
    
    Em               A  A7  - Am              C - C7          Am                Em
    --0------------|---------------------------------|-----------------|-----------------
    
  • +
    ¡Colabora con nosotros!
    Envíanos tu versión de esta canción

Letra de La Partida
--0--0-0-0--0-0-0--0-0-0--0-0-|--0--0-0-0--0-0-0--0-0-0--0-0-|
--2--2-2-2--2-2-2--2-2-2--2-2-|--2--2-2-2--2-2-2--2-2-2--2-2-|
--0--0-0-0--0-0-0--0-0-0--0-0-|--0--0-0-0--0-0-0--0-0-0--0-0-|
--4--4-4-4--4-4-4--4-4-4--4-4-|--4--4-4-4--4-4-4--4-4-4--4-4-|
--0--0-0-0--0-0-0--0-0-0--0-0-|--0--0-0-0--0-0-0--0-0-0--0-0-|
--0--0-0-0--0-0-0--0-0-0--0-0-|--5--5-5-5--5-5-5--5-5-5--5-5-|
--0--0-0-0--0-0-0--0-0-0--0-0-|--0--0-0-0--0-0-0--0-0-0--0-0-|
--0--0-0-0--0-0-0--0-0-0--0-0-|--0--0-0-0--0-0-0--0-0-0--0-0-|
--1--1-1-1--1-1-1--1-1-1--1-1-|--0--0-0-0--0-0-0--0-0-0--0-0-|
--2--2-2-2--2-2-1--1-1-1--1-1-|--2--2-2-2--2-2-2--2-2-2--2-2-|
--3--3-3-3--3-3-3--3-3-3--3-3-|--5--5-5-5--5-5-5--5-5-5--5-5-|
--3--3-3-3--3-3-3--3-3-3--3-3-|--0--0-0-0--0-0-0--0-0-0--0-0-|
--0--0-0-0--0-0-0--0-0-0--0-0-|--0--0-0-0--0-0-0--0-0-0--0-0-|
--0--0-0-0--0-0-0--0-0-0--0-0-|--0--0-0-0--0-0-0--0-0-0--0-0-|
--0--0-0-0--0-0-0--0-0-0--0-0-|--2--2-2-2--2-2-2--2-2-2--2-2-|
--0--0-0-0--0-0-0--0-0-0--0-0-|--3--3-3-3--3-3-3--3-3-3--3-3-|
--2--2-2-2--2-2-2--2-2-2--2-2-|--3--3-3-3--3-3-3--3-3-3--3-3-|
--0--0-0-0--0-0-0--0-0-0--0-0-|--0--0-0-0--0-0-0--0-0-0--0-0-|
--4--4-4-4--4-4-4--4-4-4--4-4-|--0--0-0-0--0-0-0--0-0-0--0-0-|
--0--0-0-0--0-0-0--0-0-0--0-0-|--0--0-0-0--0-0-0--0-0-0--0-0-|
--5--5-5-5--5-5-5--5-5-5--5-5-|--2--2-2-2--2-2-2--2-2-2--2-2-|
--0--0-0-0--0-0-0--0-0-0--0-0-|--2--2-2-2--2-2-2--2-2-2--2-2-|
--0--0-0-0--0-0-0--0-0-0--0-0-|--2--2-2-2--2-2-2--2-2-2--2-2-|
--0--0-0-0--0-0-0--0-0-0--0-0-|--2--2-2-2--2-2-2--2-2-2--2-2-|
--2--2-2-2--2-2-2--2-2-2--2-2-|--4--4-4-4--4-4-4--4-4-4--4-4-|
--5--5-5-5--5-5-5--5-5-5--5-5-|--0--0-0-0--0-0-0--0-0-0--0-0-|
--0--0-0-0--0-0-0--0-0-0--0-0-|--2--2-2-2--2-2-2--2-2-2--2-2-|
--0--0-0-0--0-0-0--0-0-0--0-0-|--0--0-0-0--0-0-0--0-0-0--0-0-|
--0--0-0-0--0-0-0--0-0-0--0-0-|--4--4-4-4--4-4-4--4-4-4--4-4-|
--2--2-2-2--2-2-2--2-2-2--2-2-|--0--0-0-0--0-0-0--0-0-0--0-0-|
--0--0-0-0--0-0-0--0-0-0--0-0-|--5--5-5-5--5-5-5--5-5-5--5-5-|
--0--0-0-0--0-0-0--0-0-0--0-0-|--0--0-0-0--0-0-0--0-0-0--0-0-|
--0--0-0-0--0-0-0--0-0-0--0-0-|--0--0-0-0--0-0-0--0-0-0--0-0-|
--1--1-1-1--1-1-1--1-1-1--1-1-|--0--0-0-0--0-0-0--0-0-0--0-0-|
--2--2-2-2--2-2-1--1-1-1--1-1-|--2--2-2-2--2-2-2--2-2-2--2-2-|
--3--3-3-3--3-3-3--3-3-3--3-3-|--5--5-5-5--5-5-5--5-5-5--5-5-|
--3--3-3-3--3-3-3--3-3-3--3-3-|--0--0-0-0--0-0-0--0-0-0--0-0-|
--0--0-0-0--0-0-0--0-0-0--0-0-|--0--0-0-0--0-0-0--0-0-0--0-0-|
--0--0-0-0--0-0-0--0-0-0--0-0-|--0--0-0-0--0-0-0--0-0-0--0-0-|
--0--0-0-0--0-0-0--0-0-0--0-0-|--2--2-2-2--2-2-2--2-2-2--2-2-|
--0--0-0-0--0-0-0--0-0-0--0-0-|--3--3-3-3--3-3-3--3-3-3--3-3-|
--2--2-2-2--2-2-2--2-2-2--2-2-|--3--3-3-3--3-3-3--3-3-3--3-3-|
--0--0-0-0--0-0-0--0-0-0--0-0-|--0--0-0-0--0-0-0--0-0-0--0-0-|
--4--4-4-4--4-4-4--4-4-4--4-4-|--0--0-0-0--0-0-0--0-0-0--0-0-|
--0--0-0-0--0-0-0--0-0-0--0-0-|--0--0-0-0--0-0-0--0-0-0--0-0-|
--5--5-5-5--5-5-5--5-5-5--5-5-|--2--2-2-2--2-2-2--2-2-2--2-2-|
--0--0-0-0--0-0-0--0-0-0--0-0-|--2--2-2-2--2-2-2--2-2-2--2-2-|
--0--0-0-0--0-0-0--0-0-0--0-0-|--2--2-2-2--2-2-2--2-2-2--2-2-|
--0--0-0-0--0-0-0--0-0-0--0-0-|--2--2-2-2--2-2-2--2-2-2--2-2-|
--2--2-2-2--2-2-2--2-2-2--2-2-|--4--4-4-4--4-4-4--4-4-4--4-4-|
--5--5-5-5--5-5-5--5-5-5--5-5-|--0--0-0-0--0-0-0--0-0-0--0-0-|
--0--0-0-0--0-0-0--0-0-0--0-0-|--2--2-2-2--2-2-2--2-2-2--2-2-|
--0--0-0-0--0-0-0--0-0-0--0-0-|--0--0-0-0--0-0-0--0-0-0--0-0-|
--0--0-0-0--0-0-0--0-0-0--0-0-|--4--4-4-4--4-4-4--4-4-4--4-4-|
--2--2-2-2--2-2-2--2-2-2--2-2-|--0--0-0-0--0-0-0--0-0-0--0-0-|
--0--0-0-0--0-0-0--0-0-0--0-0-|--5--5-5-5--5-5-5--5-5-5--5-5-|
--0--0-0-0--0-0-0--0-0-0--0-0-|--0--0-0-0--0-0-0--0-0-0--0-0-|
--0--0-0-0--0-0-0--0-0-0--0-0-|--0--0-0-0--0-0-0--0-0-0--0-0-|
--1--1-1-1--1-1-1--1-1-1--1-1-|--0--0-0-0--0-0-0--0-0-0--0-0-|
--2--2-2-2--2-2-1--1-1-1--1-1-|--2--2-2-2--2-2-2--2-2-2--2-2-|
--3--3-3-3--3-3-3--3-3-3--3-3-|--5--5-5-5--5-5-5--5-5-5--5-5-|
--3--3-3-3--3-3-3--3-3-3--3-3-|--0--0-0-0--0-0-0--0-0-0--0-0-|
--0--0-0-0--0-0-0--0-0-0--0-0-|--0--0-0-0--0-0-0--0-0-0--0-0-|
--0--0-0-0--0-0-0--0-0-0--0-0-|--0--0-0-0--0-0-0--0-0-0--0-0-|
--0--0-0-0--0-0-0--0-0-0--0-0-|--2--2-2-2--2-2-2--2-2-2--2-2-|
--x-x-x-x-x-x-x-x-x-x-x-x-x-x-x-x-|--x-x-x-x-x-x-x-x-x-x-x-x-x-x-x-x-|
--x-x-x-x-x-x-x-x-x-x-x-x-x-x-x-x-|--x-x-x-x-x-x-x-x-x-x-x-x-x-x-x-x-|
--x-x-x-x-x-x-x-x-x-x-x-x-x-x-x-x-|--x-x-x-x-x-x-x-x-x-x-x-x-x-x-x-x-|
--x-x-x-x-x-x-x-x-x-x-x-x-x-x-x-x-|--x-x-x-x-x-x-x-x-x-x-x-x-x-x-x-x-|
--x-x-x-x-x-x-x-x-x-x-x-x-x-x-x-x-|--x-x-x-x-x-x-x-x-x-x-x-x-x-x-x-x-|
--x-x-x-x-x-x-x-x-x-x-x-x-x-x-x-x-|--x-x-x-x-x-x-x-x-x-x-x-x-x-x-x-x-|
--x-x-x-x-x-x-x-x-x-x-x-x-x-x-x-x-|--x-x-x-x-x-x-x-x-x-x-x-x-x-x-x-x-|
--x-x-x-x-x-x-x-x-x-x-x-x-x-x-x-x-|--x-x-x-x-x-x-x-x-x-x-x-x-x-x-x-x-|
--x-x-x-x-x-x-x-x-x-x-x-x-x-x-x-x-|--x-x-x-x-x-x-x-x-x-x-x-x-x-x-x-x-|
--x-x-x-x-x-x-x-x-x-x-x-x-x-x-x-x-|--x-x-x-x-x-x-x-x-x-x-x-x-x-x-x-x-|
--x-x-x-x-x-x-x-x-x-x-x-x-x-x-x-x-|--x-x-x-x-x-x-x-x-x-x-x-x-x-x-x-x-|
--x-x-x-x-x-x-x-x-x-x-x-x-x-x-x-x-|--x-x-x-x-x-x-x-x-x-x-x-x-x-x-x-x-|
--x-x-x-x-x-x-x-x-x-x-x-x-x-x-x-x-|--x-x-x-x-x-x-x-x-x-x-x-x-x-x-x-x-|
--x-x-x-x-x-x-x-x-x-x-x-x-x-x-x-x-|--x-x-x-x-x-x-x-x-x-x-x-x-x-x-x-x-|
--x-x-x-x-x-x-x-x-x-x-x-x-x-x-x-x-|--x-x-x-x-x-x-x-x-x-x-x-x-x-x-x-x-|
--x-x-x-x-x-x-x-x-x-x-x-x-x-x-x-x-|--x-x-x-x-x-x-x-x-x-x-x-x-x-x-x-x-|
--x-x-x-x-x-x-x-x-x-x-x-x-x-x-x-x-|--x-x-x-x-x-x-x-x-x-x-x-x-x-x-x-x-|
--x-x-x-x-x-x-x-x-x-x-x-x-x-x-x-x-|--x-x-x-x-x-x-x-x-x-x-x-x-x-x-x-x-|
--x-x-x-x-x-x-x-x-x-x-x-x-x-x-x-x-|--x-x-x-x-x-x-x-x-x-x-x-x-x-x-x-x-|
--x-x-x-x-x-x-x-x-x-x-x-x-x-x-x-x-|--x-x-x-x-x-x-x-x-x-x-x-x-x-x-x-x-|
--x-x-x-x-x-x-x-x-x-x-x-x-x-x-x-x-|--3--3-3-3--3-3-3--3-3-3--3-3-|
--x-x-x-x-x-x-x-x-x-x-x-x-x-x-x-x-|--3--3-3-3--3-3-3--3-3-3--3-3-|
--x-x-x-x-x-x-x-x-x-x-x-x-x-x-x-x-|--0--0-0-0--0-0-0--0-0-0--0-0-|
--x-x-x-x-x-x-x-x-x-x-x-x-x-x-x-x-|--0--0-0-0--0-0-0--0-0-0--0-0-|
--x-x-x-x-x-x-x-x-x-x-x-x-x-x-x-x-|--0--0-0-0--0-0-0--0-0-0--0-0-|
--5--5-5-5--5-5-5--5-5-5--5-5-|--2--2-2-2--2-2-2--2-2-2--2-2-|
--0--0-0-0--0-0-0--0-0-0--0-0-|--2--2-2-2--2-2-2--2-2-2--2-2-|
--0--0-0-0--0-0-0--0-0-0--0-0-|--2--2-2-2--2-2-2--2-2-2--2-2-|
--0--0-0-0--0-0-0--0-0-0--0-0-|--2--2-2-2--2-2-2--2-2-2--2-2-|
--2--2-2-2--2-2-2--2-2-2--2-2-|--4--4-4-4--4-4-4--4-4-4--4-4-|
--5--5-5-5--5-5-5--5-5-5--5-5-|--0--0-0-0--0-0-0--0-0-0--0-0-|
--0--0-0-0--0-0-0--0-0-0--0-0-|--2--2-2-2--2-2-2--2-2-2--2-2-|
--0--0-0-0--0-0-0--0-0-0--0-0-|--0--0-0-0--0-0-0--0-0-0--0-0-|
--0--0-0-0--0-0-0--0-0-0--0-0-|--4--4-4-4--4-4-4--4-4-4--4-4-|
--2--2-2-2--2-2-2--2-2-2--2-2-|--0--0-0-0--0-0-0--0-0-0--0-0-|
--0--0-0-0--0-0-0--0-0-0--0-0-|--5--5-5-5--5-5-5--5-5-5--5-5-|
--0--0-0-0--0-0-0--0-0-0--0-0-|--0--0-0-0--0-0-0--0-0-0--0-0-|
--0--0-0-0--0-0-0--0-0-0--0-0-|--0--0-0-0--0-0-0--0-0-0--0-0-|
--1--1-1-1--1-1-1--1-1-1--1-1-|--0--0-0-0--0-0-0--0-0-0--0-0-|
--2--2-2-2--2-2-1--1-1-1--1-1-|--2--2-2-2--2-2-2--2-2-2--2-2-|
--3--3-3-3--3-3-3--3-3-3--3-3-|--5--5-5-5--5-5-5--5-5-5--5-5-|
--3--3-3-3--3-3-3--3-3-3--3-3-|--0--0-0-0--0-0-0--0-0-0--0-0-|
--0--0-0-0--0-0-0--0-0-0--0-0-|--0--0-0-0--0-0-0--0-0-0--0-0-|
--0--0-0-0--0-0-0--0-0-0--0-0-|--0--0-0-0--0-0-0--0-0-0--0-0-|
--0--0-0-0--0-0-0--0-0-0--0-0-|--2--2-2-2--2-2-2--2-2-2--2-2-|




[La Partida chords][La Partida cifra]
© LaCuerda.net · aviso legal · privacidad · es · en · pt · contacto