Acordes de Guitarra » I »Las Insolitas Imagenes de aurora » Atrapado en las telarañas de tu ternura (Tab)

Atrapado en las telarañas de tu ternura
Las Insolitas Imagenes de aurora

Letras, Acordes y Tabs para Guitarra, Bajo y Ukulele

  • Intro  LA#m  SOL#
    
    
    e----------------------------------------------
    B----------------------------------------------
    G------6---6-8-6---6-8-6---6-8-6---6-8-8\10-8--
    D--------8-------8-------8-------8----------(8)
    A----------------------------------------------
    E----------------------------------------------
    
    e------------------------------------------------1-1
    B------------------------------------------------2-2
    G------6---6-8-6---6-8-6---6-8-6---6-8-8\10-8-5--3-3
    D--------8-------8-------8-------8---------------3-3
    A---------------------------------------------------
    E---------------------------------------------------
    
    LA#m          SOL#    x 2
    
    
    
  • +
    ¡Colabora con nosotros!
    Envíanos tu versión de esta canción

Letra de Atrapado en las telarañas de tu ternura
En las noches yo me siento
completamente solo
solamente yo me siento
no quiero sentir vacío
En las noches yo me siento
entre todas tus cosas
para ver si algún día
las mueves y me encuentras
Aqui recomiendo hacer una improvisación en la escala de LA#m tipo Funk....
En las noches yo me siento
en la esquina de tu cama
para ver si algun día
tu volteas y me encuentras
En las noches aveces pienso
que tu cuerpo está en el techo
que está cayendo poco a poco
y por eso no me duermo
En las noches aveces pienso
que tu cuerpo está en el techo
que está cayendo poco a poco
y por eso no me duermo
En las noches yo me siento
completamente solo
solamente yo me siento
no quiero sentir vacío
Atrapado en las teñarañas de tu ternura(x4)
Un saludo para Zinacatepec Puebla, y para mis Brothers
de la banda de rock H1N1!!!!

Video de Atrapado en las telarañas de tu ternura
[]




[Atrapado en las telarañas de tu ternura chords][Atrapado en las telarañas de tu ternura cifra]
© LaCuerda.net · aviso legal · privacidad · es · en · pt · contacto