Acordes de Guitarra » I »Insite » Siempre me dejas (Tab)

Siempre me dejas
Insite

Letras, Acordes y Tabs para Guitarra, Bajo y Ukulele

  • C                 G
      solo déjame hablar
         F
    no quieres verme
    C                      F
      tu me das aire para respirar
    
    un día mas
       C
    parece mentira
         F
    que todo el mundo
        Am
    de vueltas
           G
    a tu alrededor
          C -  F
    pero tu
                  Am       G
    tu siempre me dejas
    
  •              C  C*  Am  Am* G*  G  F  Cadd9
           E|----0--8---0----5---3--3--1---8
           A|----3--10--0----7---5--2--3---10
    Notas: D|----2--10--2----7---5--0--3---12
           G|----0--x---2----x---x--0--x---9
           B|----1--x---1----x---x--2--x---8
           e|----X--x---0----x---x--2--x---8
    
    El intro de la transcripción de Carlos Gallegos está muy bien
    y pss aki stá (esto se hace con guitarra acústica)
    
    Guitarra 1
    Intro X4
    
    E|-8----8---8---8--8-----8--------------------
    A|--------------------------------------------
    D|-----------------------------0------0-----0-
    G|---0---------------0-------0------0-----0---
    B|----0----------------0---7------6-----5-----
    e|-8-----8--10--7-----------------------------
    
  • E)--8------------------------]
    
    e)----------10-------/--------]
    b)--10---8-----------/--------]
    g)------0--------9---/9--8-6-5] 2 veces
    d)-----0-----------7-/--------]
    a)---------------0---/--------]
    E)---8---------------/--------]
    estas dos partes al mismo tiempo la de arriba y la de bajo
    e)----------------------------]
    b)--10---8--6---5-------------]2 veces
    g)----------------------------]
    
    Intro: C - Am dos veces
    esto con la guitarra electrica
    e)-------------------------------------]
    b)-------------------------------------]
    g)-5555555555557777--------------------]
    d)-555555555555777799999999555533332222]
    a)-333333333333555599999999555533332220]
    
  • E)--->C3
    
    Amm...
    nuc el nombre de los akordes..  asi k les voia dar solo denominaciones :D
    
    Acordes      EADGBe
    
    C*           x55500
    E*           x22200
    F*           x24000
    A*           x02000
    
    OJO :
    la afinacion es en OpenC
    Sino les va a salir horrible :)
    
    INTRO :
    
    e)--8--------10/7------------]
    b)----0-----------7---5---4--]
    
  • Afinación: Drop C
    
    Intro:
    
    F--------------------------------
    C--------------------------------
    G-------------7-7-2-2-2-2-2-0-0--
    C-0-0-0-0-0-0--------------------
    
    Verso:
       Solo déjame hablar, no quieres verme
    F---------------------------------------
    C---------------------------------------
    G------------------2-2--2~~-0-0--0~~----
    C-5-5--5~--0-0--0~~---------------------
    
    Tú me das aire para respirar un día más
    F--------------------------------------
    C--------------------------------------
    G-------------------2-2--2~~-0-0--0~~--
    C-5-5--5~--0-0--0~~--------------------
    
    Parece mentira que todo el mundo
    De vueltas a tu alrededor..
    F------------------------------
    C------------------------------
    G---------------2-2-2--0-0-0---
    C-5-5-5--0-0-0-----------------
    
            Pero tuuuuu
    F------------------------------
    C------------------------------
    G-------------------------------
    C--5-5-5-5-5-5--0-0-0-0-0-0-0---
    
       Tú siempre me dejas…
    F------------------------------
    C------------------
  • +
    ¡Colabora con nosotros!
    Envíanos tu versión de esta canción

Letra de Siempre me dejas
no quieres verme
tu me das aire para respirar
un día mas
parece mentira
que todo el mundo
de vueltas
a tu alrededor
pero tu
tu siempre me dejas
Yo se que sientes algo mas
perdóname, yo me resisto
a perderte otra vez
perdóname, es que no puedo
verme lejos de ti
(yo se que sientes algo más!!!)
dispara bien
mejor destruyeme otra vez
(yo se que sientes algo más!!!
oh dejame volver
junto a ti, tal vez...
hoy quiero verte
[Aqui entra el solo con la bateria y el bajo]
tu siempre me dejas
perdóname, yo me resisto
a perderte otra vez
perdóname, es que no puedo
verme lejos de ti
(yo se que sientes algo más!!!)
dispara bien
mejor destruyeme otra vez
(yo se que sientes algo más!!!)
oh dejame volver
junto a ti, tal vez...
yo quiero verte
FINAL:
No estoy muy seguro
pero creo que en lugar de regresar de G a C,
hacen al cambio de G a F, luego Fm y se van deteniendo
hasta que se termina la rolilla
Algunos acordes, pareciera que no concuerdan porque estan
fuera de las letras. Pero se debe, a que el cambio de pisada
va algun tiempo despues, para que escuchen la rola bien...
otra cosa, la rola admite muchas pisadas para una misma
pero esto es lo más exacto que pude sacar
espero les sirva, y ps aqui esta completa, no le faltan
pisadas ni frases, ya que las otras transcripciones, eran
muy deficientes para mi gusto
DUDAS:
www.metroflog.com/-elgallo-




[Siempre me dejas chords][Siempre me dejas cifra]
© LaCuerda.net · aviso legal · privacidad · es · en · pt · contacto