Acordes de Guitarra » H »Horcas » Sangre fría (Tab)

Sangre fría
Horcas

Letras, Acordes y Tabs para Guitarra, Bajo y Ukulele

  • Intro:
       ^v^v^v^v^v^v^v^.............
    1|--------------------------------|
    2|--------------------------------|
    3|--------------------------------|x4
    4|--------------------------------|
    5|--------------------------------|
    6|--4-0-0-0-2-0-0-0-3-0-0-0-3-4---|
      PM............................
    
    Riff 1:
    1|---------------------------------------------------------------|
    2|---------------------------------------------------------------|
    3|---------------------------------------------------------------|
    4|-9-------9-------9-------9-------------------------------------|
    5|-7-------7-------7-------7-------------------------------------|
    6|---0-0-0---0-0-0---0-0-0---0-0-0--4-0-0-0-2-0-0-0-3-0-0-0-3-4--|
        PM....   .....   .....   .....  ............................
    
    Riff 2:Estribillo
    1|------------------------------------|
    2|------------------------------------|
    3|------------------------------------|
    4|-9----------------------------------|
    5|-7-7-7-7-7-7--7----------5---
  • +
    ¡Colabora con nosotros!
    Envíanos tu versión de esta canción






[Sangre fría chords][Sangre fría cifra]
© LaCuerda.net · aviso legal · privacidad · es · en · pt · contacto
DINAMICO