Acordes de Guitarra » H »Los Hijos del Sol » Cariñito (Tab)

Cariñito
Los Hijos del Sol

Letras, Acordes y Tabs para Guitarra, Bajo y Ukulele

  • E|--------------------------------------------------|
    B|-------8-5-----------------------5-8-5---5--------|
    G|-----------7-5-7-5-------------7-------7----------|
    D|-------------------7------------------------------|
    A|-------------------------3---3--------------------|
    E|-5-0-5---------------3-5---3----------------------|
    
    
    E|--------------------------------------------------|
    B|----------5-8-5---5-----------------8-5-----------|
    G|--------7-------7---7-------------------7-5-7-5---|
    D|--------------------------------------------------|
    A|-3---3----------------3-3p5h3---------------------|
    E|---3--------------------------5-0-5---------------|..X2
    
    
    E|-12-12p15h12/10p12h10/8p10h8-8-8p10h8-8-8p10h8---|
    B|-------------------------------------------------|
    G|-------------------------------------------------|
    D|-------------------------------------------------|
    
  • |-----------------------------------3-----------
    |----------8-5------------------3-5---5-3-5-3---
    |--------------7-5----------------------------5-
    |------------------7----------------------------
    |------------------------3----3-----------------
    |-5--3-5-------------3-5----3-------------------
    
      PM----|          PM----------|
    |------------3------------------
    |--------3-5---5-3--------------
    |------------------------------- x 2
    |-------------------------------
    |-3----3-----------3-5-3--------
    |----3-------------------5--3-5-
    
    |-12-12-10-8--8-8--8-8--12-12-10-8--8-8--8-8--
    |---------------------------------------------
    |---------------------------------------------
    |---------------------------------------------
    |---------------------------------------------
    
  • +
    ¡Colabora con nosotros!
    Envíanos tu versión de esta canción

Letra de Cariñito
Lloro por quererte
por amarte y por besarte
lloro por quererte
por amarte y por besarte
ay cariño
ay mi vida
nunca pero nunca
me abandones cariñito
nunca pero nunca
me abandones cariñito
lloro por quererte
por amarte y por besarte
lloro por quererte
por amarte y por besarte
ay cariño
ay mi vida
nunca pero nunca
me abandones cariñito
nunca pero nunca
me abandones cariñito
Estos son LOS HIJOS DEL SOL
Por tu culpa me llaman aserrín
¿Por qué Ángel Aníbal?
Porque soy lo último que botan de la cantina
¿Por qué te ríes Ángel Aníbal?
No me estoy riendo, estoy llorando, (llorón)

Video de Cariñito
[]




[Cariñito chords][Cariñito cifra]
© LaCuerda.net · aviso legal · privacidad · es · en · pt · contacto