Acordes de Guitarra » H »Heredeiros da Crus » Vaiche boa! (Tab)
  • Tablatura
    Cancion supercompleta con solo,solillos,fills,... Bueno disfrutarla, 
    y mandadme algo al mail para que me anime a sacar mas de heredeiros: 
    maremoto007@hotmail.com
    
    Intro:
    Riff1
    E||------------------------------|-----------------------------|
    B||------------------------------|-----------------------------|
    G||------------------------------|----------------5---5-5-3----|
    D||------5-5----5-----5------5---|------5-5----5--5---5-5-3----|
    A||------------------------------|----------------3---3-3-1----|
    E||--3-3-----3-----3-----3-3-----|--3-3-----3------------------|
    
    RIff2
    E||----------------------------------|-------------------------------|
    B||----------------------------------|-------------------------------|
    G||----------------------------------|-------------------------------|
    D||------5-5-----5-5-----5-5-----5-5-|------8-8------8-8---8-8---8-8-|
    A||----------------------------------|-------------------------------|
    E||--3-3-----3-3-----3-3-----3-3-----|--6-6------6-
  • +
    ¡Colabora con nosotros!
    Envíanos tu versión de esta canción





© LaCuerda.net · aviso legal · privacidad · contacto