Acordes de Guitarra » H »Hechizo » La temporera (Tab)

La temporera
Hechizo

Letras, Acordes y Tabs para Guitarra, Bajo y Ukulele

  • INT    SIm  LA  SIm  LA
           
           SOL  RE  LA  SIm
    
               SIm             RE
    Hace algún tiempo vino del sur
              SIm        LA         SIm
    Y en su mochila traía sueños de mejores días
            SIm            RE
    La temporera dejó su hogar
                 SIm          LA          SIm      
    Y allá en su tierra lejana llora un niño que la extraña
    
    LA                   SIm       LA                  SIm
    Temporera tienes que trabajar, duro la tierra para cosechar
    LA                   SIm        LA                    SIm
    Ay, temporera tienes que luchar pa´que mañana vuelvas al hogar
     
                LA          SIm
    Junto a los tuyos (temporera) 
    
  •  así empieza esta gran cumbia:
    
    G|-------------------|-------------------|
    D|----0-4-2-2--------|--0-4-2-2-5-5-4----|
    A|--2---------4-0-2--|-------------------|   3 veces
    E|-------------------|-------------------|
    
    G|-------------------|----------2-2-4----|
    D|----0-4-2-2--------|--0-4-2-2----------|
    A|--2---------4-0-2--|-------------------|
    E|-------------------|-------------------|
    
    
    G|------------------------------|         [-----------------------]
    D|-----------4-7----------------|         [-----------------------]
    A|----2-5--5---------4-7---2-0--|  2veces [--5--5-5---------------]x2
    E|--3-------------5------------3          [----5----5-5--7-7--3-3-]
    hace algun tiempo vino del sur.....
    
       si               re           la      sol
    
    [----------/`[-------------/[--------/[--------/
    [-----9-----/[------4-7----/[--------/[--------/
    [----9------/[-----5-------/[----4-7-/[----2-5-/
    [---7-------/[-------------/[---5----/[---3----/
  • +
    ¡Colabora con nosotros!
    Envíanos tu versión de esta canción

Letra de La temporera
Hace algún tiempo vino del sur
Y en su mochila traía sueños de mejores días
La temporera dejó su hogar
Y allá en su tierra lejana llora un niño que la extraña
Temporera tienes que trabajar, duro la tierra para cosechar
Ay, temporera tienes que luchar pa´que mañana vuelvas al hogar

Junto a los tuyos (temporera)
Que allá lejos (temporera)
Un niño (pequeño espera)
Su madre (la temporera)
Que vuelva (pa´que le quiera)




[La temporera chords][La temporera cifra]
© LaCuerda.net · aviso legal · privacidad · es · en · pt · contacto