Acordes de Guitarra » G »Guasones » My Love (Tab)

My Love
Guasones

Letras, Acordes y Tabs para Guitarra, Bajo y Ukulele

  • DO                            LAm  
    Todas las mañanas iguales
    DO                          SOL 
    Peleando como animales
    DO                             LAm
    De la lucha libre y la guerra 
    DO                           SOL
    De esa vieja rutina que aterra
    
    Dos corazones dolidos, 
    una vida sin sentidos
    y un triste silencio que crece 
    me esta golpeando la puerta
    
    juro que nunca jamas 
    quise lastimarte
    siempre que trato de estar,
    no estoy en ninguna parte
    
    ocho primaveras en vano
    
  •  DO                SOL
    Todas las mañanas iguales
     LAm              SOL 
    peleando como animales
     DO                    SOL
    De la lucha libre y la guerra
     LAm                   SOL
    esa vieja rutina que aterra.
     DO             SOL
    Dos corazones dolidos
     LAm            SOL
    una vida sin sentido
     DO                      SOL
    Y un triste sinlencio que crece
     LAm                SOL
    Esta golpeando la puerta.
    
     (1)
    Juro que nunca jamas
    quise lastimarte
    
  • e -------------------------------------------|----------------------------------------------------|
    B ---8--10--13----13--12--13--12--10---------|---8--10--13----13--12--13--12--10------------------|
    G ------------------------------------9--14--|------------------------------------9--14-----------|
    D -------------------------------------------|--------------------------------------------13--12--|
    A -------------------------------------------|----------------------------------------------------|
    E -------------------------------------------|----------------------------------------------------|
    
      C                  C/B
    Todas las mañanas iguales
      Am              G
    Peleando como animales
      C                     C/B
    De la lucha libre y la guerra,
     Am                       G
    De esa vieja rutina que aterra
    
     C              C/B
    Dos corazones dolidos
     Am              G
    Una vida sin sentidos,
    
  • Este es el punteo del tema:
    
    3:03:
    
    e---------------------------------------------
    B----------------------8---------8---8/10-8-8-
    G--9-7----9-7----9-9-9---9-9-7-9---9----------
    D------10-----10------------------------------
    A---------------------------------------------
    E---------------------------------------------
    
    e-----8-7------------8------------------8-10--
    B--10-----8-8---8/10---10-8----8-10-10--------
    G-------------9--------------9----------------
    D---------------------------------------------
    A---------------------------------------------
    E---------------------------------------------
    
    e-10/12-8-12-10-8-10----8-10/12-15-12-15-12--
    B--------------------10----------------------
    G--------------------------------------------
    D--------------------------------------------
    A--------------------------------------------
    E--------------------------------------------
    
    Pongo solo la primer cuerda , mi (e)
    
    e-15-12-10-8-10/12-10-8-8---------------
    
    
    Bueno espe
  • E--- 3/8^^ ------8--7h8-7-------------------3/8^^ ------8--7h8--7------------------------------
    B----------------------------8---5/10^^ -------------------------------8--5/10^^ ---10/13---12-
    G----------------------------------------------------------------------------------------------
    D----------------------------------------------------------------------------------------------
    A----------------------------------------------------------------------------------------------
    E----------------------------------------------------------------------------------------------
    
    Al mismo tiempo se hace este arpegio que se continua en las estrofas:
    
                     C                     C/B                Am                    G9?
    E----------------------------------------------------------------------------------------------
    B-----------1----------------1----------------1-----------------1- 0--------------------------
    G---------0---0-----------0---0---0-------2---2-------------0------0------------------------
    D-------2-------2-------2-------2-------2--------2---------0---------0-----------------------
    A-0---3-----------0--2---------------0--------------------------------------------------------
    E-------------------------------------------------------0---3-----------------------------------
    
    C                     C/B                Am                    G9?
    Todas las mañanas iguales, peleando como animales
    C                     C/B                Am                    G9?
    
  • hago una correccion a la otra tablatura
    no me habia avivado, gracias cami jeje ;)
    
    Esto es masomenos en el minuto 3:56 y hace..
    
    6 6 6 6 (5) 5 6 - (5) 5 (4)
    
    6 6 6 6 (5) 5 6 6 6 6 (5) 5 6 - (5) 5 (4)
    
    7 6 6 7 6 6 - (6) 6 (5) 5 6
    
    6 6 6 6 (5) 5 6 - (5) 5 (4)
    
    Mas lento
    6 6 6 6 (5) 5 6666 -(5) 5 6
    
    (4) 4...
    
    cualquier duda mandenme un mail a
    huevo_stone89@hotmail.com
  • +
    ¡Colabora con nosotros!
    Envíanos tu versión de esta canción

Letra de My Love
Todas las mañanas iguales
Peleando como animales
De la lucha libre y la guerra
De esa vieja rutina que aterra
Dos corazones dolidos,
una vida sin sentidos
y un triste silencio que crece
me esta golpeando la puerta
juro que nunca jamas
quise lastimarte
siempre que trato de estar,
no estoy en ninguna parte
ocho primaveras en vano
todo es diferente
hay que escribir con la pluma entre dientes
y cuchillo en la mano
y quiero enloquecerme de amor
como esa noche que te vi
y no dude en acostarme con vos
mi amor.
Puedo gritarle a la luna
Que como vos no hay ninguna
Y si alguna noche te veo
Veras lo malo y lo bueno
Dicen que el pasado pisado
Pero yo no puedo
Porque las espinas me duelen
La droga, el alcohol, me ganaron.

Y quiero enloquecerme de amor
Como esa noche que te vi
Y no dude en acostarme con vos

Espero que les sirva ....y no hagan caso a todo lo que mandan
que algunos con tal de figurar mandan fruta.
Aguante los guasones.......y el ocasooo!!!!




[My Love chords][My Love cifra]
© LaCuerda.net · aviso legal · privacidad · es · en · pt · contacto