Acordes de Guitarra » G »Guasones » Buenos Aires (Tab)

Buenos Aires
Guasones

Letras, Acordes y Tabs para Guitarra, Bajo y Ukulele

  • e----------------------------------------------
    B----------------------------------------------
    G-------------------5-5-------------5-5-7-7----repite mientras
    D-5-------------5-5-5-5-------------5-5-7-7-5-5la otra viola
    A-5-------------5-5-3-3-3-3-3-3-3-3-3-3-5-5-5-5hace un solo
    E-3-3-3-3-3-3-3-3-3-------------------------3-3
    
    Riff 1
    e--------
    B--------
    G-----5-5
    D-5-5-5-5
    A-5-5-3-3
    E-3-3----
    
    Riff 2
    e----------------
    B----------------
    G-5-5-7-7-5-5----
    D-5-5-7-7-5-5-5-5
    
  • e--------------------------------------------------------
    B--------------------------------------------------------
    G-------------------------------------9-9-9-9-9-9-9-9----
    D---------9---------------------------9-9-9-9-9-9-9-9----
    A---------9-----------------------5/7-7-7-7-7-7-7-7-7----  (x4)
    E---5/7---7-7-7-7-7-7-7-7-7-7-7/5------------------------
    
    
    
    riff 1
    e----------------------------
    B----------------------------
    G---------9-9-9-9-9-9-9-9----
    D---------9-9-9-9-9-9-9-9----
    A-----5/7-7-7-7-7-7-7-7-7----
    E-7/5------------------------
    
    
    
    
    
  • +
    ¡Colabora con nosotros!
    Envíanos tu versión de esta canción

Letra de Buenos Aires
Riff 1
Riff 2
Estrofa:
Riff 1
Buenos dias Buenos Aires
Riff 2
buen dia mi amor
Riff 2
de regreso como siempre
Riff 2
con algo mejor
Riff 1
Buenos dias mis amigos
Riff 2
traje para ver
Riff 1
una nueva odisea
Riff 2
de magia y poder
Estribillo:
Pero no...
no...
no...
me veras caer
Estrofa:
Buenos dias malos aires
una enfermedad
del sur acaba de llegar
para darte mas
Buenos dias a la gente
que supo entender
soy esclavo de los clavos
que yo mismo clave
Estribillo:
Pero no...
no...
no...
me veras caer
Buenos Aires, Buenos Aires, Malos aires
Solo(La base es C5-G5)
Estribillo
Buenos Aires, Buenos Aires, Malos aires
Escuchar bien el tema




[Buenos Aires chords][Buenos Aires cifra]
© LaCuerda.net · aviso legal · privacidad · es · en · pt · contacto