Acordes de Guitarra » G »Grupo Niche » El gran conquistador (Tab)

El gran conquistador
Grupo Niche

  • Tablatura
    Esta transcripcion esta dedicada para todos los conquistadores como yo
    
    Para todas mis enamoradas - Por que a todas las tengo felices
    
    
    
    /-8-10-11---11-13-10------10---10-11-8----8-------
    /----------------------11---------------9---------
    /-------------------------------------------------
    /-------------------------------------------------
    /-------------------------------------------------
    /-------------------------------------------------
    
    /-8-10-7----8-10-11----9-8------------------------
    /--------------------------11-9-------------------
    /-------------------------------------------------
    /-------------------------------------------------
    /-------------------------------------------------
    /-------------------------------------------------
    
    ESTA PARTE ES MAS MOVIDA TIENES QUE TOCARLA MAS RAPIDO
    
    /-8-10-11-11-11-11-13-10----------10-10-10-11-8---
    /---------------------------11-11-----------------
    /-------------------------------------------------
    /---------------------------------------
  • +
    ¡Colabora con nosotros!
    Envíanos tu versión de esta canción





© LaCuerda.net · aviso legal · privacidad · contacto