Acordes de Guitarra » G »Grupo Jalado » Que te vaya bien (Tab)

Que te vaya bien
Grupo Jalado

Letras, Acordes y Tabs para Guitarra, Bajo y Ukulele

  • INTRODUCCIÓN: Am G Am |:| Am G Am
    
    
     Am
    Debo resignarme ah que no estés
                      G              Am
    Aunque este muy triste ya no llorare
    
    Tu eres feliz si estas con el
             G                 Am
    Era mi amigo pues ya no lo es.
    
    
    INTERMEDIO: Am G Am G |:|
    
    
                Am
    Que te vaya bien, que les vaya bien que les vaya bien
              G                 Am
    No te extrañare quédate con el
    
  • e.--------------------8-7-8--
    B.-----10-8-10/(8)--5--------
    G.--9------------------------
    D.---------------------------
    A.---------------------------
    E.---------------------------
    
    e.-------8-7-8--7-5---5-5-5-8-5-7--5----------7---8-7/5- (x3
    B.-5-5-------------------------------8--8-8-8---8-------
    G.------------------------------------------------------
    D.------------------------------------------------------
    A.------------------------------------------------------
    E.------------------------------------------------------
    
    ( Rasgueo 1, en Am )-- Abajo-arriba.... Abajo-arriba.. rápido
    
     Aba Ar Aba Ar
    e.-5-5----5-5-
    B.-5-5----5-5-
    G.-5-5----5-5-
    
  • E-----------------------------------------------------------
    A-----------------------------------------------------------
    D-----------------------------------------------------------
    G-----------------------------------------------------------
    B------------------------- ---------------------------------
    E--0-0--5-3-5----0-0--8-7-8---0-0--8-7-8-7h8p7/5------------
    
    E-----------------------------------------------------------
    A-----------------------------------------------------------
    D-----------------------------------------------------------
    G-----------------------------------------------------------
    B---------------------------8-8-8---8-----------------------
    E--5-5-5--8-5-7-5h7p5/3-----------7---7h8--7---5------------
    
    Am
    Debo resignarme aunque no estés.
                     G                Am
    Aunque este muy triste ya no llorare
    
    Tu eres feliz si estas con el
    
  • +
    ¡Colabora con nosotros!
    Envíanos tu versión de esta canción

Letra de Que te vaya bien
Debo resignarme ah que no estés
Aunque este muy triste ya no llorare
Tu eres feliz si estas con el
Era mi amigo pues ya no lo es.
Que te vaya bien, que les vaya bien que les vaya bien
No te extrañare quédate con el
Que te vaya bien, que les vaya que les vaya bien
Tu que más viciosa ya no llorare
Aunque yo te extrañe quédate con el
BIS
Tu que más viciosa ya no llorare
Aunque yo te extrañe quédate con el

Video de Que te vaya bien
[]




[Que te vaya bien chords][Que te vaya bien cifra]
© LaCuerda.net · aviso legal · privacidad · es · en · pt · contacto