Acordes de Guitarra » G »Grupo Celeste » Palomita (Tab)

Palomita
Grupo Celeste

Letras, Acordes y Tabs para Guitarra, Bajo y Ukulele

  • 1.|----------------10----10/12-(/10)---------------14p12-14---|
    2.|-------12-12-12----12------------10-10h12------------------|
    3.|-11-11------------------------------------11---------------|
    4.|-----------------------------------------------------------|
    5.|-----------------------------------------------------------|
    6.|-----------------------------------------------------------|
    
    
    
    1.|----------------10----10/12--10--12/14-14---|
    2.|-------12-12-12----12-----------------------|
    3.|-11-11--------------------------------------|
    4.|--------------------------------------------|
    5.|--------------------------------------------|
    6.|--------------------------------------------|
    
    
    
    1.|-14-12h14p12--------------14-12h14p12/-9-12-12p9---------------------------|
    2.|-------------15.----15---------------------------10-10/12---12-10h12p10----|
    
  • +
    ¡Colabora con nosotros!
    Envíanos tu versión de esta canción

Letra de Palomita
___________________________
Leyenda:
h : Hammer On
p : Hammer off
/ : Slide
. : Pausa pequeña.
(): Nota que casi ni se escucha, pero importante.
___________________________
sɐuɐɔnlnɥɔ




[Palomita chords][Palomita cifra]
© LaCuerda.net · aviso legal · privacidad · es · en · pt · contacto