Acordes de Guitarra » G »Grupo Bananas » Más que amiga (Tab)

Más que amiga
Grupo Bananas

Letras, Acordes y Tabs para Guitarra, Bajo y Ukulele

  • INTRO: E G#m A E B
    
    
             E
    No puedo más
         B
    Ocultar lo de este amor
    A                         B
    Que por ti yo siento hace tiempo
    E                        B
    Es tan distinto lo que siento
               F#m                     A
    Quiero que sepas que te llevo muy dentro
               E                        G#m
    Que cuando te acercas ya no es como antes
          F#m                    B
    Ahora quiero tenerte junto a mí...
             C#m        B          A   B
    Y que te amo sé muy bien amiga mía
             C#m          B              A   B
    
  •    D             A
    e|--------2---5---------0-7-5-|
    b|------3---3---------2-------|
    g|----2-------------2---------|
    d|-0-------------2------------|
    a|----------------------------|
    E|----------------------------|
               ¡Ay!              Nena...
    
    
       G’(3ro)    D                        A
    e|-------3--3-------2-----2---2-0--3-2-0-|
    b|-----3----------3---------3------------|
    g|---4----------2------------------------|
    d|-5----------0--------0-----------------|
    a|---------------------------------------|
    E|---------------------------------------|
    
    
    
    
  • +
    ¡Colabora con nosotros!
    Envíanos tu versión de esta canción

Letra de Más que amiga
No puedo más
Ocultar lo de este amor
Que por ti yo siento hace tiempo
Es tan distinto lo que siento
Quiero que sepas que te llevo muy dentro
Que cuando te acercas ya no es como antes
Ahora quiero tenerte junto a mí...
Y que te amo sé muy bien amiga mía
Y que quiero ser para ti más que un amigo
//Te quiero dar
Amor, amor…
Te voy a dar
Amor, amooor...
Ya no podía ocultarlo ni un día más
Todo este amor…//
Todo este amor
PEQUEÑO PUENTE: E A B B(Varias veces)

Video de Más que amiga
[]




[Más que amiga chords][Más que amiga cifra]
© LaCuerda.net · aviso legal · privacidad · es · en · pt · contacto