Acordes de Guitarra » G »Green Valley » Suspiros (Tab)

Suspiros
Green Valley

  • Letra y Acordes
    LA                     MI
    Quiero mostrarte el sentido, de la vida
       SIm
    en tres acordes una voz y un suspiro.
    LA                   MI
    No importa la distancia,
                   SIm
    Si el amor es de verdad nunca caerá en el olvido.
    LA                        MI
    Yo seguiré esperando el sonido,
          SIm
    que llames y me cuentes como hoy te has sentido.
    LA                   MI
    Cada noche te recuerdo,
                    SIm
    y recuerdo aquella tarde en la que nos conocimos.
    
    Coro.
    LA              MI         SIm
    Siento que el tiempo se para, cuando estoy contigo.
    
  • Letra y Acordes
    e ----5----------------------------
    B ----5----------------------------
    G ----5----------------------------
    D ----7----------------------------
    A ----7----------------------------
    E ----5----------------------------
    Do#m en cuarto traste
    e ----4----------------------------
    B ----5----------------------------
    G ----6----------------------------
    D ----6----------------------------
    A ----4----------------------------
    E ----x----------------------------
    SIm
    e ----2----------------------------
    B ----3----------------------------
    G ----4----------------------------
    D ----4----------------------------
    A ----2----------------------------
    E ----x----------------------------
    
  • +
    ¡Colabora con nosotros!
    Envíanos tu versión de esta canción

Letra de Suspiros
Quiero mostrarte el sentido, de la vida
en tres acordes una voz y un suspiro.
No importa la distancia,
Si el amor es de verdad nunca caerá en el olvido.
Yo seguiré esperando el sonido,
que llames y me cuentes como hoy te has sentido.
Cada noche te recuerdo,
y recuerdo aquella tarde en la que nos conocimos.
Siento que el tiempo se para, cuando estoy contigo.
Siento que el tiempo se para...
Quiero que vueles como un pájaro al viento,
aunque estés lejos no se muere el sentimiento.
Si decidiste que tenías que partir,
esa fue tu decisión yo te estaré esperando aquí.
Cada día al acostarme soñaré,
que estás conmigo acostada otra vez.
En mi recuerdo está tu dulce mirada,
asomada en la ventana de aquel tren.
Si el tiempo pone a cada uno en su lugar,
escucha las palabras de aquel sabio,
escucha sus deseos y mírame a los labios,
te seguiré esperando aunque pasen doscientos años.
No tengo miedo al tiempo, nunca miro el calendario,
el amor es inmortal, hay tiempo de esperar.
Te esperaré hasta la vejez si es necesario,
mirando hacia la luna para verme reflejado.
Contando las estrellas que le dan sentido al mar,
soñando que estarás aquí de vuelta al despertar.



© LaCuerda.net · aviso legal · privacidad · contacto