Acordes de Guitarra » G »Los Gomelos » El arruinado (Tab)

El arruinado
Los Gomelos

Letras, Acordes y Tabs para Guitarra, Bajo y Ukulele

  • e|------------------------------------------------------------------
    b|---4-7-8888-10-8-7---4-5-7777-8-7-5-------------------------------
    g|-4-----------------4----------------------------------------------
    d|------------------------------------------------------------------
    a|------------------------------------------------------------------
    e|------------------------------------------------------------------
    
    e|------------------------------------------------------------------
    b|---4-7-8888-10-8-7---4-5-7777-8-7-5-------------------------------
    g|-4-----------------4----------------4-0---------------------------
    d|----------------------------------------4-2-----------------------
    a|------------------------------------------------------------------
    e|------------------------------------------------------------------
    
    
    Em
    Si hubiera huevos le fritaba uno
                                 B7
    pero como hago si no hay manteca
    
    
  • +
    ¡Colabora con nosotros!
    Envíanos tu versión de esta canción

Letra de El arruinado
Si hubiera huevos le fritaba uno
pero como hago si no hay manteca
si hubiera quesito le daba un pedazo
pero pa' que si es que no hay arepa
si hubiera limón le hacia limonada
pero no puedo, no hay ni agüita
si tuviera arroz le daría almuerzo
pero no hay plato ni cucharita
si hubieran plátanos le asaba uno
pero de malas no hay parrilla
si hubieran buñuelos tambien le daría
pero pa' que si no hay natilla
si hubiera olla le hacía agua dulce
pero yo que hago si no hay panela
si hubiera fogón le fritaba carne
pero disculpe no hay cazuela
\\ a bueno de eso pa' comer con esto
como es de bueno eso con esto
si hubiera de eso yo comía con de esto
pero no hay de esto pa' comer con esto//
Si fuera soltero te daba un besito
pero no puedo, yo soy casado
si tuviera parba te daría merienda
pero perdona no hay cacao
si hubiera papas le hacía sancocho
pero no hay yuca ni tengo sal
a bueno menuda pa' darle un peso
pero no hay gruesa para cambiar
que le de treinta, usted pa' que veinte
si quince es mucho, que va a hacer con diez
si le doy cinco usted se los gasta
tome estos cuatro y me devuelve tres
si hubiera azucar le hacia tinto
pero como hago si no hay café
si hubiera vino le daba un trago
pero la copa ya la quebré

a bueno sueño pa' dormir contigo
si estoy solito, no esta mi mama
si hubiera almohada con mucho gusto
pero pa' que si no tengo cama
\\ a bueno de eso pa' comer con esto
como es de bueno eso con esto
si hubiera de eso yo comia con de esto
pero no hay de esto pa' comer con esto//

Video de El arruinado
[]




[El arruinado chords][El arruinado cifra]
© LaCuerda.net · aviso legal · privacidad · es · en · pt · contacto