Acordes de Guitarra » G »Glup! » Welcome Polinesia (Tab)

Welcome Polinesia
Glup!

Letras, Acordes y Tabs para Guitarra, Bajo y Ukulele

  • LA           DO#m  RE  MI  LA
    Woh-oh-oh-oh-oh-o
    LA           DO#m  RE  MI  FA#m
    Woh-oh-oh-oh-oo
    
    RE  MI  FA#m
    RE      MI
    
    
    A)
    
    MI                     FA#m
    Everybody's singing my song
            RE               MI
    I wanna sing with my generation
    MI                 FA#m
    Everybody taked my love
            RE
    I wanna live with you
            LA                DO#m
    
  • EADG
    
    Intro
    "Woah..."
    1.
    G|-----------------------------------|
    D|-------76--------------------------|
    A|----------44-2424-55-55757---------|
    E|-55-454--------------------55-4545-|
    
    2.
    G|------------------------------------------------------|
    D|--------76---------00-00202-44-2424--00-00202-44-2424-|
    A|-----------44-2424------------------4-----------------|
    E|-55-454-----------------------------------------------|
    
    3.
    G|--------------------|
    D|--00--00-0202020202-|
    A|-4---4--------------|
    E|--------------------|
    
    Verso
    "Everybody's singing my song..."
    4.
    G|-------------------------------------------------------------|
    D|-------------------------------------------------------------|
    A|-------------------------------------------------------------|
    E|-------------------------------------------------------------|
    
    "Everbody check out my love..."
    5.
    G|-------------------------------------------------------------|
    D|-------------------------------------------------------------|
    A|-7~--5-4----
  • +
    ¡Colabora con nosotros!
    Envíanos tu versión de esta canción

Letra de Welcome Polinesia
Woh-oh-oh-oh-oh-o
Woh-oh-oh-oh-oo
Everybody's singing my song
I wanna sing with my generation
Everybody taked my love
I wanna live with you
I wanna live in Jamaica
I wanna live with you
Everyboy use marihuana
Cause marihuana makes you be allright
Allright allright allright
But allright's not freedom
freedom's just freedom
Woh-oh-oh-oh-oh-o
Everybody loves Jamaica
Woh-oh-oh-oh-oo
I wanna live in Jamaica with you
Welcome to my polinesia
I wanna love you
Interludio (mismos acordes de la intro)
A) (Con una pequeña variación)
Everybody cantan conmigo
Cantando everybody feels allright
Now I'm forever te quiero
I wanna live with you
Live in Jamaica
I wanna live with you
Sisters, brothers
childrens monkeys
Sisters, brothers
childrens monkeys
Sisters, brothers
Woh-oh-oh-oh-oh-o
Everybody loves Jamaica
Woh-oh-oh-oh-oo
I wanna live in Jamaica with you
Welcome to my polinesia
I wanna love you
Woh-oh-oh-oh-oh-o
Everybody loves Jamaica
Woh-oh-oh-oh-oo
I wanna live in Jamaica with you
Welcome to my polinesia
I wanna love you
Fin!




[Welcome Polinesia chords][Welcome Polinesia cifra]
© LaCuerda.net · aviso legal · privacidad · es · en · pt · contacto
DINAMICO