Acordes de Guitarra » G »Los Girasoles » La vaca blanca (Tab)

La vaca blanca
Los Girasoles

Letras, Acordes y Tabs para Guitarra, Bajo y Ukulele

  •    Bm                                   A
    E|------------------------10-14-10---------------------------9-10-9-----|
    B|-12-12----12----12---12----------12-/-10-10---10---10---10--------10/-|
    G|-------11----11-----------------------------9----9--------------------|
    D|----------------------------------------------------------------------|
    A|----------------------------------------------------------------------|
    E|----------------------------------------------------------------------|
    
      Bm                                    A
    E|------------------------10-14-10---------------------------9-10-9-----|
    B|-12-12----12----12---12----------12-/-10-10---10---10---10--------10/-|
    G|-------11----11-----------------------------9----9--------------------|
    D|----------------------------------------------------------------------|
    A|----------------------------------------------------------------------|
    E|----------------------------------------------------------------------|
    
      G                      D                        A
    E|-----7-10------7-10-------------10---------10---9----9-12--------9-12-|
    B|-8-8-------8-8---------------10---------10--------10-------10-10------|
    G|---------------------9/11-11------11-11-------------------------------|
    
  • +
    ¡Colabora con nosotros!
    Envíanos tu versión de esta canción

Letra de La vaca blanca
1ra ESTROFA
Yo tenía una vaca blanca
Yo tenía una vaca blanca
Que se llamaba piedad
Estaba comprometida
Estaba comprometida
con un torito de sociedad
(Rep.: ESTROFA)
ESTRIBILLO:
Ella me pidió permiso pa` contraer matrimonio
Con un torito pintado que dicen que es un demonio
Y yo le negué pu pupu pu…
Con ese toro pintado que dicen que es un demonio
Hay hay hay la vaca blanca se me marcho
Hay hay hay ese torito se la llevo...x2
******************FIN**********************




[La vaca blanca chords][La vaca blanca cifra]
© LaCuerda.net · aviso legal · privacidad · es · en · pt · contacto
DINAMICO