Acordes de Guitarra » G »Gaytan Castro » Cómo has hecho? (Tab)

Cómo has hecho?
Gaytan Castro

  • Letra y Acordes
       E                               B
    debi saber que tu mundo ya no era mio
       A                              C#m   B
    es tan lejano aquel dia en que me decias
       C#m                               B
    ya no soy niña no juego con mis sentimientos.
    A                                     B
    
    ¿Cómo has hecho para amarte asi? 
      E                    B
    ¿Cómo has hecho que te quiera así?
      A                      E      B
    ¿Cómo has hecho, me mataste amor?
      E                    A
    ¿Cómo has hecho? ¿Cómo has hecho?
      A                E        B
    
    
    Al saber que era ajeno a mis sentimientos
    C#m                                B
    
  • Letra y Acordes
     RE                             LA 
    debi saber que al amarte yo me perdia
     SOL                             RE  LA 
    debi saber que tu mundo ya no era mio
     SIm                            FA#m
    esta lejano aquel dia en q me decias
    SOL                              RE   LA 
    ya no soy niño no juego con sentimientos
    
    Coro:
     RE                  LA 
    Cómo has hecho para amarte asi ?
     SOL                   REm LA 
    cómo has hecho q te quiera asi ?
     RE                  LA 
    cómo has hecho me mataste amor ?
     SOL              RE        LA 
    cómo has hecho ? cóoomo has hechooo ?
    
    II estrofa
    
  • Tablatura
    e|-|----------12-14-12-------|----------12-14-15-12---|
    B|-|-15----15----------15----|-15----15---------------|
    G|-|----14----------------14-|----14------------------|
    D|-|-------------------------|------------------------|
    A|-|-------------------------|------------------------|
    E|-|-------------------------|------------------------|
    Luego tentras q hacer n y n2 n intercalando 4 veces
    
    (Guitarra)
    
      |                 4 veces                  |
    e|--------0---0-2---2-3---3-2---2-0---0-----|
    B|--3---3---3-----3-----3-----3-----3-------|
    G|----2-------------------------------------|
    D|--0-----------0-----------0---------------|
    A|--------0-----------0-----------0---------|
    E|------------------------------------------|
    
    (Zampoña)
    
    
  • Tablatura
    e|-|----------12-14-12-------|----------12-14-15-12---|
    B|-|-15----15----------15----|-15----15---------------|
    G|-|----14----------------14-|----14------------------|
    D|-|-------------------------|------------------------|
    A|-|-------------------------|------------------------|
    E|-|-------------------------|------------------------|
    
    
    Guitarra:
    
    
    e|--------0---0-2---2-3---3-2---2-0---0-----|
    B|--3---3---3-----3-----3-----3-----3-------|
    G|----2-------------------------------------|
    D|------------------------------------------|
    A|------------------------------------------|
    E|------------------------------------------|
    
    
    Zampoña:
    
  • +
    ¡Colabora con nosotros!
    Envíanos tu versión de esta canción

Letra de Cómo has hecho?
debi saber que tu mundo ya no era mio
es tan lejano aquel dia en que me decias
ya no soy niña no juego con mis sentimientos.
¿Cómo has hecho para amarte asi?
¿Cómo has hecho que te quiera así?
¿Cómo has hecho, me mataste amor?
¿Cómo has hecho? ¿Cómo has hecho?
Al saber que era ajeno a mis sentimientos
de este hombre tan torpe que has hecho en mi



© LaCuerda.net · aviso legal · privacidad · contacto