Acordes de Guitarra » G »Gabriel Sopeña » Un fogonazo (Tab)

Un fogonazo
Gabriel Sopeña

Letras, Acordes y Tabs para Guitarra, Bajo y Ukulele

  •    SOL
     e--3-----------------------------------------------------------------
     B--3---3-1--0h1p0-----------------------3--1--0h1p0------------------
     G--0--------------2--0-2-0-2------------0------------2--0------------
     D--0-------------------------2-2-2-2---------------------------------
     A--2-----------------------------------------------------------------
     E--3------------------------------------------------------0-0-2-2-3--
                                  PM....PM                     PM...PM
    
      
     e----------------------------------------------------------------
     B--3-1--0h1p0-----------------------3--1--0h1p0------------------
     G--0-----------2--0-2-0-2-----------0------------2--0------------
     D------------------------2-2-2-2---------------------------------
     A----------------------------------------------------------------
     E-----------------------------------------------------0-0-2-2-3--
                              PM....PM                     PM...PM
    
      
       SOL
    
  • +
    ¡Colabora con nosotros!
    Envíanos tu versión de esta canción

Letra de Un fogonazo
PM....PM PM...PM

PM....PM PM...PM

Muy joven para entender,
yo no quería encontrar tu corazón; pero tú estabas libre.
Decidiste escapar, Mamá Lola esperaba en su jardín,
le preguntamos: "¿Qué ves?" y ella leyó nuestras manos:
"Un fogonazo de luz, un desgarro interior, una lágrima".
(repetir, ritmo distinto 2a vez)

PM....PM PM...PM
Llegamos a Castellón tentando siempre a nuestra oportunidad.
Barcelona era un sueño: mi guitarra, mi voz, diez billetes por noche,
una canción, la brisa del mar, tu boca en mi boca...
"Un fogonazo de luz, un desgarro interior, una lágrima". (repetir)
PM....PM PM...PM
Encontraste otra llama que abrasó con más fuerza y más calor tu carne de seda.
Y mientras yo recurrí a curar el veneno del amor tú olvidaste el amor
y tragaste veneno.
"Un fogonazo de luz, un desgarro interior, una lágrima". (repetir)
PM....PM PM...PM
Regresé a aquel jardín: quince años después y encontré allí
a Mamá Lola esperando. Yo le pregunté por ti. Sacó un naipe del mazo
y sólo vio que tu corazón había quebrado.
Sólo vio un fogonazo de luz, tu desgarro interior y mis lágrimas.
* a partir de aquí sólo se escucha los acordes de guitarra acústica,
que sustituyen al ritmo que principalmente es llevado por la eléctrica,
con arreglos de española por enmedio.




[Un fogonazo chords][Un fogonazo cifra]
© LaCuerda.net · aviso legal · privacidad · es · en · pt · contacto
DINAMICO