Tablatura para Guitarra de Franco de Vita: Te Amo
Conexión · Inscripción
Letras y Acordes
Pantalla Completa
Imprimir
Versión Texto
Añadir Favorito
Otras Versiones

Mostrar Diagramas
Desfile Automático
Manipular Acordes
Formato del Texto


Te Amo(TAB)

Franco de Vita

calidad:
fran0306
AUTOR: Franco De Vita
ALBUM: Al Norte Del Sur
Enviado por Yhon
Hola yo aqui de nuevo con esta cancion q fue realizada gracias
a un amigo q me la pedia (SAULO Arequipa-Peru)bueno esta rola
ta buenaza espero la pírateen pa cantarles asus flakitas ,tmb se
la quiero dedicar al amor de mi vida Mary para ti


Ahí si nos hu-bie-ran vis-to es-tá-ba-mos ah-í  sen-ta-dos
e|--------------------------|-----------------------------|
B|-1-1--1--1--1---3----0--0-|---1--1--1--1--1---3---------|
G|--------------------------|-4--------------------4--4---|
D|--------------------------|-----------------------------|
A|--------------------------|-----------------------------|
E|--------------------------|-----------------------------|


    fren-tea fren-te      no po-día fal-tar-nos la lu-na
e|----------------------|---------------------------------|
B|----------------------|--------------------3---0--1--1--|
G|----2---0-------------|-0--0---0---0---0----------------|
D|------------3---2-----|---------------------------------|
A|----------------------|---------------------------------|
E|----------------------|---------------------------------|


  Y hablá-ba-mos de to-doun po-co  y to-do nos cau-sa-ba ri-sa
e|-------------------------------|-----------------------------|
B|0--1-1--1--1----1-3-----0----0-|-0--1--1--1--1---1---3-------|
G|-------------------------------|------------------------4--4-|
D|-------------------------------|-----------------------------|
A|-------------------------------|-----------------------------|
E|-------------------------------|-----------------------------|


   co-mo  dos ton-tos    y yo  que no  ve --í--a  la ho-ra
e|----------------------|--------------------------------------|
B|----------------------|-----------------------3--0--1--1-----|
G|--2--0----------------|-0--0---0---0---0---0-----------------|
D|----------3--3---2----|--------------------------------------|
A|----------------------|--------------------------------------|
E|----------------------|--------------------------------------|



 de te-ner-teen mis bra-zos  y  po-der-te de-cir    Te a--mo
e|-------0---0-----0--0---0-|--------0--0---0--0------0-0------|
B|--------------------------|-3--1-------------------------0---|
G|-2--2---------------------|----------------------------------|
D|--------------------------|----------------------------------|
A|--------------------------|----------------------------------|
E|--------------------------|----------------------------------|

 des deel pri-mer mo--men-toen que te ví yha ce  tiem-po  te bus-ca-ba
e|---------3--3----0--0---------------0-|---------3----3---0--0-----------|
B|--------------------------3----1------|-------------------------3--1----|
G|-0--0---------------------------------|-0--0----------------------------|
D|--------------------------------------|---------------------------------|
A|--------------------------------------|---------------------------------|
E|--------------------------------------|---------------------------------|

y ya  tei ma-gi-na-baa sí   te a--mo...
e|---------3--3--------------0--0-----|---------3----3---0--0-----------|
B|----------------3---1--0---------1--|-----------------------------3--1|
G|-0--0-------------------------------|---------------------------------|
D|------------------------------------|---------------------------------|
A|------------------------------------|---------------------------------|
E|------------------------------------|---------------------------------|

Y de pron-to nos rodeoel silencio y  nos mi-ra-mos fi-ja-men-te
e|-------------------------------|-----------------------------|
B|-1--1--1----1--1---3----0--0---|---1--1--1--1--1---3---------|
G|-------------------------------|-4--------------------4--4---|
D|-------------------------------|-----------------------------|
A|-------------------------------|-----------------------------|
E|-------------------------------|-----------------------------|

     u--no  al o--tro      tus man-os  en--tre las mí-as
e|----------------------|---------------------------------|
B|----------------------|--------------------3---0--1--1--|
G|----2---0-------------|-0--0---0---0---0----------------|
D|----------3--3---2----|---------------------------------|
A|----------------------|---------------------------------|
E|----------------------|---------------------------------|

Tal vez nos vol-ve-re-mos a ver     ma-ña-na no sé si po-dré
e|-------------------------------|----------------------------|
B|1--1-1--1--1----1-3-----0----0-|--1--1--1--1---1--3--0--0---|
G|-------------------------------|----------------------------|
D|-------------------------------|----------------------------|
A|-------------------------------|----------------------------|
E|-------------------------------|----------------------------|

   quees tás ju-gan-do   me mue ro  si  no  te  vuel-voa ver
e|----------------------|--------------------------------|
B|----------------------|--------------------3---0--1----|
G|----2---0-------------|-0--0--0---0---0----------------|
D|------------3--3---2--|--------------------------------|
A|----------------------|--------------------------------|
E|----------------------|--------------------------------|


 de te-ner-teen mis bra-zos  y  po-der-te de-cir    Te a--mo
e|-------0---0-----0--0---0-|--------0--0---0--0------0-0------|
B|--------------------------|-3--1-------------------------0---|
G|-2--2---------------------|----------------------------------|
D|--------------------------|----------------------------------|
A|--------------------------|----------------------------------|
E|--------------------------|----------------------------------|


comentarios y consejos ha (arcangel_125_1@hotmail.com
Este fichero es trabajo propio de su transcriptor y representa su interpretación personal de la canción. El material contenido en esta página es
para exclusivo uso privado, por lo que se prohibe su reproducción o retransmisión, así como su uso para fines comerciales.

© LaCuerda.net · Aviso Legal · Privacidad