Tablatura para Guitarra de Franco de Vita: Tan sólo tú
Conexión · Inscripción
Letras y Acordes
Pantalla Completa
Imprimir
Versión Texto
Añadir Favorito
Otras Versiones

Mostrar Diagramas
Desfile Automático
Manipular Acordes
Formato del Texto


Tan sólo tú(TAB)

Franco de Vita

calidad:
fran0852
AUTOR: Franco de vita
ALBUM: Franco de vita en Primera fila (2011)
Enviado por david
hola mi nombre es david davila esta es mi primer transcripcio,
suena bastante bien, espero que les guste

INTRO-
e--3-------------3--2---------3-------3---------3--2-----2---------|
B-------5----1---------3-----------------5--1--------3---3---------|
G-----4--4-----0--2--2---2---0-0--------4-4---0--2--2-2--2---------|
D-------------------0------------------------------0-----0---------|
A--0---------0-------------2----------0-----0----------------------|
E------------------------------------------------------------------|


e--3-------------3---2---------3--------3---------3--2-------2----|
B-------5----1----------3------------------5--1--------3-----3----|
G-----4--4-----0--2---2---2---0--0--------4-4---0--2--2-2----2----|
D--------------------0-------------------------------0-------0----|
A--0---------0--------------2-----------0-----0-------------------|
E-----------------------------------------------------------------|
   Tu…       me das….                   Tu     me das el aire q..


e--3-------------3---2---------3--------3---------3--2-----2-------|
B-------5----1----------3------------------5--1--------3---3-------|
G-----4--4-----0--2---2---2---0--0--------4-4---0--2--2-2--2-------|
D--------------------0-------------------------------0-----0-------|
A--0---------0--------------2-----------0-----0--------------------|
E------------------------------------------------------------------|

   Tu...     seras lo q….              y tu vendras
D7 robándome la vida pa’ fundirla con la tuya
Bm Bm7 Y que será de mi cuando en tus brazos yo descubra que
C D G C Tú serás el cielo que jamás podré tocar
Am D G es imposible ya lo sé, abrázame……… después repite lo mismo…… y sigue asi…. e--3-------------3---2---------3--------3---------3--2-------2----| B-------5----1----------3------------------5--1--------3-----3----| G-----4--4-----0--2---2---2---0--0--------4-4---0--2--2-2----2----| D--------------------0-------------------------------0-------0----| A--0---------0--------------2-----------0-----0-------------------| E----------------------------------------------------------| Tu me das un golpe……… y tu me das………. e--3-------------3---2---------3--------3---------3--2-------2----| B-------5----1----------3------------------5--1--------3-----3----| G-----4--4-----0--2---2---2---0--0--------4-4---0--2--2-2----2----| D--------------------0-------------------------------0-------0----| A--0---------0--------------2-----------0-----0-------------------| E-------------------------------------------------------------| Tu seras la his…… y tu vendras entregando
D7 tu vida para hacerte con la mía
Bm Bm7 y qué será de mi cuando en tus besos yo entendía que
C D G C Tú serás (serás) el cielo que jamás podré tocar
Am D C D es imposible ya lo sé… que Tan sólo tú me das (me das)
G C Am D G la vida que yo siempre quise para mi, es imposible ya lo sé, perdóname
A D D7 Bm Por pensar sólo en mi (por pensar sólo en mi, por pensar sólo en mi)
A D D7 Bm Por no darte mas de lo que te di (por no darte mas de lo que te di)
A D D7 Bm Por amarte simplemente, no me pidas hacer lo que no puedo hacer,
A C D G si tu quieres y puedes olvídame tú serás (serás) el cielo que jamás
C Am D C D podré tocar, es imposible ya lo sé... Que tan sólo tú me das (me das)
G C la vida que yo siempre quise para mi (la vida que yo siempre quise)
Am D C D G Em pero es imposible ya lo sé... Que tan sólo tú…
Am D G Em Bm C G Es imposible ya lo sé... perdóname Uh perdóname………………………….
Este fichero es trabajo propio de su transcriptor y representa su interpretación personal de la canción. El material contenido en esta página es
para exclusivo uso privado, por lo que se prohibe su reproducción o retransmisión, así como su uso para fines comerciales.

© LaCuerda.net · Aviso Legal · Privacidad