Acordes de Guitarra » F »Francisco Cespedes » Te soñé, lluvia de abril (Tab)

Te soñé, lluvia de abril
Francisco Cespedes

  • Letra y Acordes
    MIm   RE         DO        SIm
    Te soñé y en tu rostro gentil
           MIm   RE       DO     SIm
    hasta pude ver tu sonrisa sutil
    
    
    MIm   RE         DO        SIm
    Quise ser como un niño otra vez
          MIm   RE       DO     SIm
    Echando a correr bajo lluvia de abril
    
    
    LAm          SIm          MIm
    y llegar empapado a tus brazos
            DO                          RE
    por sentir el calor maternal de tu abrazo
    
    
    MIm   RE         DO        SIm
    Te soñé con tu andar señoril
    
  • Tablatura
    A)
    
    1-|7---5-/-5 7 8 7 5-----5-------/-------5 7 5-|
    2-|--5---/-----------8 7---8 5 7-/-5 7 8-------|
    3-|--------------------------------------------|
    4-|--------------------------------------------|
    5-|--------------------------------------------|
    6-|--------------------------------------------|
    
    B)
    
    1-|5 7 8 7 5-----5-----/-------5 7 5---/-------5 7 5 7 5--|
    2-|----------8 7---7 5-/-5 7 8-------5-/-5 7 8-----------8|
    3-|-------------------------------------------------------|
    4-|-------------------------------------------------------|
    5-|-------------------------------------------------------|
    6-|-------------------------------------------------------|
    
    C)
    
    
  • +
    ¡Colabora con nosotros!
    Envíanos tu versión de esta canción

Letra de Te soñé, lluvia de abril
Te soñé y en tu rostro gentil
hasta pude ver tu sonrisa sutil
Quise ser como un niño otra vez
Echando a correr bajo lluvia de abril
y llegar empapado a tus brazos
por sentir el calor maternal de tu abrazo
Te soñé con tu andar señoril
y te pude ver solamente el perfil
te pasé para verte después desaparecer
vestidita de añil
y te quise atrapar en mis sueños
pero echaste a volar en las alas del viento
Y desperté aún sintiendo el aroma de tu piel
buscandote en las sobras que están
fijas en la pared
Te soñe como un angel azul
al amanecer vestidita de tul
Y lloré al mirarte después desaparecer
sobre un rayo de luz
y te quise atrapar en mis sueños
pero echaste a volar en las alas del viento
Y desperté aun sintiendo el aroma de tu piel
buscandoté en las sobras
que están fijas en la pared
Y desperté con los labios resecos por la sed
sientiendote como lluvia de abril
dándome de beber
Y es que llevo en el alma
Una huella de amor que no morirá
Y desperté aun sintiendo el aroma de tu piel
Buscandoté en las sobras
que están fijas en la pared
Y desperté con los labios resecos por la sed
Sientiendoté como lluvia de abril
Dándome de beber.



© LaCuerda.net · aviso legal · privacidad · contacto
DINAMICO