Tablatura para Bajo de Fito Paez: Dar es Dar
Conexión · Inscripción
Letras y Acordes
Pantalla Completa
Imprimir
Versión Texto
Añadir Favorito
Otras Versiones

Mostrar Diagramas
Desfile Automático
Formato del Texto


Dar es Dar(BAJ)

Fito Paez

calidad:
fito0164
AUTOR: Fito Paez
ALBUM: Euforia
Enviado por esrock22
  DAR ES DAR, Y NO FIJARME EN ELLA...

  1   2   3   4   |

G|----------------|----------------|----------------|----------------|
D|----------------|----------------|0-----0---------|----------------|
A|0-----0---------|--------------0-|--------4-4---4-|2-----2---------| x 2
E|--------4-4---4-|2-----2-0-0-----|----------------|--------0-0---0-|


  CUANDO EL MUNDO TE PREGUNTA...

  1   2   3   4   |

G|----------------|----------------|----------------|----------------|
D|0-------0-0---0-|2-----2---------|----------------|----------------|
A|------0---------|----------------|--------------2-|4-----234-4---4-|
E|----------------|----------0---0-|2-----012-2-----|----------------|

  1   2   3   4   |

G|----------------|----------------|
D|0-----0---------|--------2-2---2-|
A|--------4-4---4-|2-----2---------|
E|----------------|----------------|


  DAR ES DAR, NO MARCAR LAS CARTAS...

  1   2   3   4   |

G|----------------|----------------|----------------|------------1-2-|
D|----------------|----------------|0-----0---------|----0-1-2-4-----|
A|0-----0---------|--------------0-|--------4-4---4-|2-4-------------|
E|--------4-4---4-|2-----2-0-0-----|----------------|----------------|

  1   2   3   4   |

G|----------------|----------------|----------------|----------------|
D|----------------|----------------|0-----0---------|----------------|
A|0-----0---------|--------------0-|--------4-4---4-|2-----2---------|
E|--------4-4---4-|2-----2-0-0-----|----------------|--------0-0---0-|


  HOY LOS TIEMPOS VA A MIL...

  1   2   3   4   |

G|----------------|----------------|----------------|--------1-------|
D|0-------0-0---4-|2-----2---------|----------------|-------2--2-----|
A|------0---------|----------------|--------------2-|4-----------4---|
E|----------------|----------0---0-|2-----012-2-----|----------------|

  1   2   3   4   |

G|----------------|----------------|----------------|----------------|
D|0-----0---------|----------------|0-----0---------|----------------|
A|--------4-4---4-|2-----012-2-4---|--------4-4---4-|2-----012-2-4---|
E|----------------|----------------|----------------|----------------|


  1   2   3   4   |

G|----------------|----------------|
D|0-----0---------|----------------|
A|--------4-4---4-|2---------------|
E|----------------|--4-2-1-0-2-4-0-|


  DAR LO QUE TENGO...

  1   2   3   4   |

G|----------------|----------------|----------------|----------------|
D|----------------|----------------|0------0-2-2--2-|----------------|
A|0-----0-4-4---4-|--------------0-|----------------|0-----0-4-4---4-|
E|----------------|2-----2-0-0-----|----------------|----------------|

  1   2   3   4   |

G|----------------|----------------|
D|----------------|0-----0-2-2---2-|
A|--------------0-|----------------|
E|2-----2-0-0-----|----------------|


  DAR ES DAR, ES SOLAMENTE...

  1   2   3   4   |

G|----------------|----------------|----------------|------------1-2-|
D|----------------|----------------|0-----0---------|----0-1-2-4-----|
A|0-----0---------|--------------0-|--------4-4---4-|2-4-------------|
E|--------4-4---4-|2-----2-0-0-----|----------------|----------------|

  1   2   3   4   |

G|----------------|----------------|----------------|----------------|
D|----------------|----------------|0-----0---------|----------------|
A|0-----0---------|--------------0-|--------4-4---4-|2-----2---------|
E|--------4-4---4-|2-----2-0-0-----|----------------|--------0-0---0-|


  CUANDO ESTOY PERDIDO...

  1   2   3   4   |

G|----------------|----------------|----------------|--------1-------|
D|0-------0-0---4-|2-----2---------|----------------|-------2--2-----|
A|------0---------|----------------|--------------2-|4-----------4---|
E|----------------|----------0---0-|2-----012-2-----|----------------|

  1   2   3   4   |

G|----------------|----------------|----------------|----------------|
D|0-----0---------|----------------|0-----0---------|----------------|
A|--------4-4---4-|2-----012-2-4---|--------4-4---4-|2-----012-2-4---|
E|----------------|----------------|----------------|----------------|


  1   2   3   4   |

G|----------------|----------------|
D|0-----0---------|----------------|
A|--------4-4---4-|2---------------|
E|----------------|--4-2-1-0-2-4-0-|


  DAR LO QUE TENGO...

  1   2   3   4   |

G|----------------|----------------|----------------|----------------|
D|----------------|----------------|0------0-2-2--2-|----------------|__
A|0-----0-4-4---4-|--------------0-|----------------|0-----0-4-4---4-|  |
E|----------------|2-----2-0-0-----|----------------|----------------|  |
                                                                        |
  1   2   3   4   |                                                     | X 2
                                                                        |
G|----------------|----------------|                                    |
D|----------------|0-----0-2-2---2-|____________________________________|
A|--------------0-|----------------|
E|2-----2-0-0-----|----------------|


  DAR ES DAR...

  1   2   3   4   |

G|----------------|------2-0-------|----------------|----------------|
D|--------------2-|----------2-----|--------------2-|------------2---|
A|0-------0-0-----|0---------------|0-------0-0-----|0-------0-------|
E|----------------|------------3---|----------------|------3---------|


  1   2   3   4   |

G|----------------|----------------|----------------|----------------||
D|--------------2-|----------------|----------------|----------------||
A|0-------0-0-----|0-------0---0---|(0)-------------|(0)-------------||
E|----------------|----------0-----|----------------|----------------||
Este fichero es trabajo propio de su transcriptor y representa su interpretación personal de la canción. El material contenido en esta página es
para exclusivo uso privado, por lo que se prohibe su reproducción o retransmisión, así como su uso para fines comerciales.

© LaCuerda.net · Aviso Legal · Privacidad