Acordes de Guitarra » F »Fito Olivares » El chicle se me pegó (Tab)

El chicle se me pegó
Fito Olivares

Letras, Acordes y Tabs para Guitarra, Bajo y Ukulele

  • Aqui les traigo el intro y la parte intermedia de esta cancion tan
    movida
    Disfrutenla.
    INTRO
    E---------------------10---------------------10------11----------
    B--11-11-11----13--11----11------13-13-13-11-----13-----13--11---
    G-----------12--------------13----------------------------------- X2
    D----------------------------------------------------------------
    A----------------------------------------------------------------
    E----------------------------------------------------------------
    
    E----------------------------------------------------------------
    B-----------11----11---------------------13---13--11-------------
    G--12-12-12-----12----13-12-10---13-13-13---13-------13-12-------
    D----------------------------------------------------------------
    A----------------------------------------------------------------
    E----------------------------------------------------------------
    
    E-------------------------------11---13--11-----------------------
    B----------11---11---13---13--13---15----11
  • +
    ¡Colabora con nosotros!
    Envíanos tu versión de esta canción



Video de El chicle se me pegó
[]




[El chicle se me pegó chords][El chicle se me pegó cifra]
© LaCuerda.net · aviso legal · privacidad · es · en · pt · contacto