Acordes de Guitarra » F »La Firma » La Llamada (Tab)

La Llamada
La Firma

Letras, Acordes y Tabs para Guitarra, Bajo y Ukulele

  • Intro      G  D/F#  Em  C  Am  D  (2)   C G
    
        G           D/F#     Em
    Disculpa no quería molestarte,
             C        G/B    Am  /G  D/F#  /E  /D
    solo quería escuchar tu voz, y nada más,
       C                   G  D/F# Em D
    había prometido no llamarte-e-e,
               C               Am           D
    pero me está quemando el frió, en esta soledad.
    
          G          D/F#         Em   /D
    No quiero malentiendas, mi llamada,
        C            Am               D
    ya sé que se acabó lo nuestro y que, no hay marcha atrás,
       C              D              G  D/F#  Em  /D
    pero me está costando mucho llanto olvidarte,
           C              Am           D
    y quiero saber que estás haciendo, para olvidarme.
    
    
  • INTRO: G  Em  C Am D7 (2)C G
    
    
    
        G           F#m      Em   D
    Disculpa no queria molestarte
             C               Am         D7
    solo quería escuchar tu voz y nada mas
       C                   G  F#m Em D
    havia prometido no llamarte-e-e
               C               Am          D7
    pero me esta quemando el frió en esta soledad.
    
    
          G          F#m          Em  D
    No quiero malentiendas mi llamada
        C            Am               D
    ya se que se acabo lo nuestro y que no hay marcha atrás
       C                          G  F#m    Em  D
    pero me esta costando mucho llanto olvidarte
    
  • INTRO: G  Em  C Am D (2)C G
    
    
    
        G                   Em
    Disculpa no queria molestarte
             C              Am     D
    solo quería escuchar tu voz y nada mas
       C                   G
    havia prometido no llamarte-e-e
              C               Am          D
    pero me esta quemando el frió en esta soledad.
    
    
          G                   Em
    No quiero malentiendas mi llamada
        C                 Am         D
    ya se que se acabo lo nuestro y que no hay marcha atrás
       C                          G
    pero me esta costando mucho llanto olvidarte
    
  • INTRO: G Em C Am D G Em C Am D C G
    
    
    D--------------------------------------------------------
    G------12-----12-------------------12---------------12-13
    B-13-12--13-12---12-13-----------12---10-12-12-13-12-----
    e---------------------10-10-12-10------------------------
    
                        X DOS
    D-------------------------------------|-------------------
    G--------------------------------12---|------------12-12--
    B------------------13-12-12-10-10--10-|-10-12-10-10-------
    e-10-12-12-10-12-10-------------------|-------------------
    
    
    D-------------------------------
    G-11-12------------12-12-11-12--
    B-------10-12-10-10-------------
    e-------------------------------
    
    
  • INTRO
    
    G|---|---|---|---|---|
    D|---|---|---|---|-0-|
    A|---|---|-3-|-0-|---|  x2
    E|-3-|-0-|---|---|---|
    
    G|---|---|
    D|---|---|
    A|-3-|---|
    E|---|-3-|
    
    VERSO 1
    
    G|---|---|---|---|
    D|---|---|---|-0-|
    A|---|---|---|---|
    E|-3-|-2-|-0-|---|
    
    G|---|---|---|
    D|---|---|-0-|
    A|-3-|-0-|---|
    E|---|---|---|
    
    G|---|---------|
    D|---|-------0-|
    A|-3-|---------|
    E|---|-3-2-0---|
    
    G|---|---|---|
    D|---|---|-0-|
    A|-3-|-0-|---|
    E|---|---|---|
    
    PRE-CORO
    
    G|--------|--------|--------|-------|--------|--------|
    D|--------|--------|--------|-------|--------|-0--0-0-|
    A|--------|-2--2-2-|-3--3-3-|-------|-0--0-0-|--------|
    E|-3--3-3-|--------|--------|-3--3-3|--------|--------|
    
    CORO
    
    G|--------|--------|--------|-------|--------|
    D|--------|--------|--------|-------|--------|
    A|--------|-2--2-2-|-3--3-3-|-------|-0--0-0-|
    E|-3--3-3-|--------|--------|-3--3-3|--------|
    
    G|-------|---|---|--------|--------|--------|
    D|-------|---|---|-0--0-0-|--------|--------|
    A|-------|-0-|-3-|--------|-3--3-3-|--------|
    E|-3--
  • +
    ¡Colabora con nosotros!
    Envíanos tu versión de esta canción

Letra de La Llamada
Disculpa no queria molestarte
havia prometido no llamarte-e-e
pero me esta quemando el frió en esta soledad.
No quiero malentiendas mi llamada
ya se que se acabo lo nuestro y que no hay marcha atrás
pero me esta costando mucho llanto olvidarte
y quiero saber que estas haciendo para olvidarme.
La llamada es para decirte
que mis noches se han vuelto frías
que desde aquel día en que te fuiste
me volví preso de la melancolía
que mi alegría se marcho contigo
que no tengo vida si no estas conmigo.
La llamada es para decirte
que poco a poco pierdo la cordura
que platico con todas tus cosas
y me dicen que se sienten solas
que en mi reloj no caminan las horas
que me haces falta para seguir vivo
la llamada es para decirte que aun te amo
que aun te amo.
No puedo acostumbrarme a estar tan solo
me haces falta y sin tu aire muero de a poco
me acostumbre a tus manos, me acostumbre a tu voz
y con tu ausencia no camina el tiempo en mi reloj.
La llamada es para decirte
que mis noches se han vuelto frías
que desde aquel día en que te fuiste
me volví preso de la melancolía
que mi alegría se marcho contigo
que no tengo vida si no estas conmigo.
La llamada es para decirte
que poco a poco pierdo la cordura
que platico con todas tus cosas
y me dicen que se sienten solas
que en mi reloj no caminan las horas
que me haces falta para seguir vivo
la llamada es para decirte que aun te amo
que aun te amo.




[La Llamada chords][La Llamada cifra]
© LaCuerda.net · aviso legal · privacidad · es · en · pt · contacto