Acordes de Guitarra » F »Fernando Moser » Alma de Cristo (Tab)

Alma de Cristo
Fernando Moser

Letras, Acordes y Tabs para Guitarra, Bajo y Ukulele

  • RE                DO SOL RE
    Alma de Cristo, santificame
    RE               DO SOL RE
    cuerpo de Cristo, salvame
    RE                DO SOL RE
    sangre de Cristo, embriagme
    RE                DO SOL RE
    agua de su costado, lavame.
    RE                 DO SOL RE
    pasión de Cristo, confortame
    RE            DO SOL RE
    oh, Buen Jesús, oyeme.
    
    SIm           SOL     RE     LA
    Dentro de tus llagas, escondeme
       SIm            SOL     RE LA
    no permitas que me aparte de ti
        SIm     SOL      RE      LA
    del maligno enemigo, defiendeme,
          SIm        SOL   RE     LA
    
  • e|-----2--2--3--5--3--2--3-----3--3--3----------2---0-0p2-0---0---x--3--|
    B|-----3--3--3--5--3--3--3-----3--3---3-------3---3--------3--3---x--3--|
    G|---2----------------------0----------0----2-------------------0-x-----|
    D|-0--------------------------------------0-----------------------x-----|
    A|-----------------------3-----3------------------------------3---x-----|
    E|--------------------------------3-------------------------------x--3--|
    
    
    Estribillo:
    
    Dentro de tus llagas...
    
    e|-10-99-77-5-3-2-----7-9-10-9-9-77-5-3-5--|
    B|----------------3-5----------------------|
    
    Del maligno enemigo...
    
    e|-7-9-10-9-9-7-5-3-2------7-9-10-99-77-5-5-10-9--|
    B|---------------------3-5------------------------|
    
    
  • +
    ¡Colabora con nosotros!
    Envíanos tu versión de esta canción

Letra de Alma de Cristo
Alma de Cristo, santificame
cuerpo de Cristo, salvame
sangre de Cristo, embriagme
agua de su costado, lavame.
pasión de Cristo, confortame
oh, Buen Jesús, oyeme.
Dentro de tus llagas, escondeme
no permitas que me aparte de ti
del maligno enemigo, defiendeme,
en la hora de mi muerte, llamame
y mandame a ti
para que con tus santos te alabe
por los siglos de los siglo
amen.

Video de Alma de Cristo
[]




[Alma de Cristo chords][Alma de Cristo cifra]
© LaCuerda.net · aviso legal · privacidad · es · en · pt · contacto