Acordes de Guitarra » F »Fernando cabrera » La casa de al lado (Tab)

La casa de al lado
Fernando cabrera

Letras, Notas, Punteos, Tablaturas y Acordes de Guitarra (Tabs & Chords)

  • Letra y Acordes
    RE m                                 SOL m
    No hay tiempo no hay hora no hay reloj
    DO                              FA
    no hay antes ni luego ni tal vez
    RE m                          SOL m
    no hay lejos ni viejos ni jamás
    LA 7                    RE m
    en esta olvidada invalidez
    
    RE m                    SOL m
    Si todos se ponen a pensar
    DO                          FA
    la vida es mas larga cada vez
    RE m                         SOL m
    te apuesto mi vida una vez más
    LA 7                       RE m
    aquí no hay durante ni después
    
    RE m                    SOL m
    Dejá no me lo repitas más
    
  • Tablatura
        SOLm                         LA7sus4         LA7
    e|-----------------------------------------------------------------------
    B|-----3-------3------3------3-------3------3--------0-----2-------------
    G|---0-------0------0------0-------0------0--------0-----0---------------
    D|----------------------0--------2------0--------------------------------
    A|--------0------1------------------------------4v-----0-----------------
    E|-3---------------------------------------------------------------------
    
       REm                            REm
    e|-----------------------------------------------------------------------
    B|-----2-------2------2------2--------2-------2------2--------2----------
    G|---3-------3------3------3--------3-------3------3-------3-------------
    D|-0------------------------------0--------------------------------------
    A|--------3-------1-----0----------------3------1-------0----------------
    E|-----------------------------------------------------------------------
    
    A lo largo del tema se repiten las siguientes figuras, alternándose:
    
    Figura 1:
    
    
  • +
    ¡Colabora con nosotros!
    Envíanos tu versión de esta canción

Letra de La casa de al lado
No hay tiempo no hay hora no hay reloj
no hay antes ni luego ni tal vez
no hay lejos ni viejos ni jamás
en esta olvidada invalidez
Si todos se ponen a pensar
la vida es mas larga cada vez
te apuesto mi vida una vez más
aquí no hay durante ni después
Dejá no me lo repitas más
nosotros y ellos vos y yo
que nadie se ponga en mi lugar
que nadie me mida el corazón
La calle se empieza a incomodar
el baile del año terminó
los carros se encargan de cargar
los restos del roto corazón
Acá en esta casa viven mil
clavamos el tiempo en un cartel
somos como brujos del reloj
ninguno parece envejecer
Mi abuelo me dijo la otra vez
me dijo mi abuelo que tal vez
su abuelo le sepa responder
si el tiempo es mas largo cada vez
Discrepo con aquellos que creen
que hay una sola eternidad
descrean de toda soledad
se engaña quien crea la verdad
Acá no hay tango, no hay tongo ni engaño
aquí no hay daño, que dure cien años
por fin buen tiempo, aunque no hay un mango
estoy llorando, toy me acostumbrando
Se pasa el año, se pasa volando
ya no hay más nadie, que pueda alcanzarlo
y yo mirando, sentado en el campo
como se pasa, el año volando
No pasa el tiempo, no pasan los años
inventa cosas, con cosas de antaño
a nadie espera, la casa de al lado
se va acordando, se acuerda soñando
Por eso te pido una vez más
tomátelo con tranquilidad
puede ser ayer nunca o después
pero tu amor dame de alguna vez.



© LaCuerda.net · Aviso Legal · Privacidad