Acordes de Guitarra » E »Extremo 03 » Ningún trén (Tab)

Ningún trén
Extremo 03

Letras, Acordes y Tabs para Guitarra, Bajo y Ukulele

  •   D
    Atado a tantas reglas
    
    no me puedo mover,
         G
    las manos se endurecen
           A
    se calcinan los pies.
         D
    El brillo de mis ojos
    
    nunca se detendrá,
       G
    palabras más palabras
            A
    no me puedo callar.
    
        G              -
    Me pegan una vez, HEY!
        G               -
    
  • Solo nº1:
     Base: G - D - G - D - C - E - A - D
    
    |-----------------------------------|
    |-----------------------------------|
    |------16-----16--14--12--14--------|
    |-12-------------------------12-----|
    |-----------------------------------|
    |-----------------------------------|
    
    |-----------------------------------|
    |-----------------14--15------------|
    |------16-----16----------14--------|
    |-12--------------------------------|
    |-----------------------------------|
    |-----------------------------------|
    
    |-----------------------------------|
    |-----------------------------------|
    |-12--11-------------16---12--------|
    |---------14-----14-----------------|
    |-----------------------------------|
    |-----------------------------------|
    
    |-----------------------------------|
    |-----------------------------------|
    |-12-----------------14-------------|
    |----16--14--16--12-----------------|
    |-----------------------------------|
    |-----------------------------------|
    
    
    So
  • +
    ¡Colabora con nosotros!
    Envíanos tu versión de esta canción

Letra de Ningún trén
Atado a tantas reglas
no me puedo mover,
las manos se endurecen
se calcinan los pies.
El brillo de mis ojos
nunca se detendrá,
palabras más palabras
no me puedo callar.
Me pegan una vez, HEY!
me pegan otra vez, HEY!
y siguen pegandome.
Me pegan una vez, HEY!
me pegan otra vez, HEY!
y yo me pregunto por qué....
Para salir de aca,
no tengo que escaparme.
Para salir de aca,
no tengo que tomarme ningún tren.
Consejos que fastidian
no me dejan en paz,
siempre pido permiso
pero todo da igual.
Quizas a vos te pase
y me puedas entender,
decímos frases viejas
que hoy son nuevas también.
Me pegan una vez, HEY!
me pegan otra vez, HEY!
y siguen pegandome.
Me pegan una vez, HEY!
me pegan otra vez, HEY!
y yo me pregunto por qué....
Para salir de aca,
no tengo que escaparme.
Para salir de aca,
no tengo que tomarme ningún tren.
Me pegan una vez, HEY!
me pegan otra vez, HEY!
y siguen pegandome.
Me pegan una vez, HEY!
me pegan otra vez, HEY!
y yo me pregunto por qué....
Para salir de aca,
no tengo que escaparme.(x3)
Para salir de aca,
no tengo que tomarme ningún tren.
Aguante Extr3mo y Attaque 77




[Ningún trén chords][Ningún trén cifra]
© LaCuerda.net · aviso legal · privacidad · es · en · pt · contacto
DINAMICO