Acordes de Guitarra » E »Eva Ayllon » Homenaje a Verónica (Tab)

Homenaje a Verónica
Eva Ayllon

  • Tablatura
    e|------------------------3-5---------|
    b|---------------------------3--------|
    g|------------------------------------|
    D|-5/7-7-3-2-00-0h2-------------------|
    A|-----------------1-3-1-0------------|
    E|------------------------------------|
    
    e|-5-3-1-0-6.-------------------------|
    b|--------2---------------------------|
    g|-2-0---0-----3-5-3-2----------------|
    D|--------------------2-3-2-0---------|
    A|------------------------------------|
    E|------------------------------------|
    
    e|-5-5-6-8-6-5-10-11-8-----8---------------|
    b|--------------------11-10-10-8-7-10-7----|
    g|-------------------------------------8-7-|
    D|-----------------------------------------|
    A|-----------------------------------------|
    E|-----------------------------------------|
    
    e|------------------------------------|
    b|-------------------1-3--------------|
    g|------0-2-3-2-0-2-3-----------------|
    D|-0-2-4------------------------------|
    A|------------------------------------|
    E|------------------------------------|
    
    e|-1-1
  • +
    ¡Colabora con nosotros!
    Envíanos tu versión de esta canción





© LaCuerda.net · aviso legal · privacidad · contacto