Acordes de Guitarra » E »los Estrambóticos » Epicentro (Tab)
  • Letra y Acordes
            E             C#m            F#m         Bm
     e |-----------------------------------------------------------------|
     B |--9/10--10-9------7/9--9-7--------------------------10-9---------|
     G |-------------9-8-----------8-6---8-11-11-8---8-9-11------11-9-8--|
     D |-----------------------------------------------------------------|
     A |-----------------------------------------------------------------|
     E |-----------------------------------------------------------------|
    
          E             C#m            F#m         Bm                  E
     |----------------------------------------------------------------------|
     |--9/10--10-9------7/9--9-7--------------------------10-9--------------|
     |-------------9-8-----------8-6---8-11-11-8---8-9-11------11-9-8--9~~~-| 
     |----------------------------------------------------------------------|
     |----------------------------------------------------------------------|
     |----------------------------------------------------------------------|
    
        E                 C#m
    Te vas, te vas con la noche
        F#m             Bm
    quizá, quizá desperté 
    
  • +
    ¡Colabora con nosotros!
    Envíanos tu versión de esta canción

Letra de Epicentro
Te vas, te vas con la noche
quizá, quizá desperté
las palabras que se lleva el viento
al centro o a tu alrededor
y es que desde hace tanto tiempo te esperaba
que ya no se si realmente te quiero tener
te extrañaba sin conocerte todavía
estoy seguro que perderte es lo mejor
SILENCIO
cuando parece venir al epicentro de mí
cuando parece que es para ti
se te va, se te va una vez más
cuando parece venir al epicentro de mí
cuando parece que es para ti
se te va, se te va una vez más
Te vas, te vs con la noche
quizá nunca volverás
y aunque te extraño y siento frío
ya no aguanto, no quierO estar contigo
PRE - CORO
Eso es todo, no estoy seguro en el intro,
pero cualquier corrección o comentario está mi dirección arriba.
ARRIBA EL SKA!
CHINGUE A SU MADRE LA GENTE QUE SE DEJA LLEVAR POR LA RADIO Y
TELEVISA Y TV AZTECA, BOLA DE PENDEJOS



© LaCuerda.net · aviso legal · privacidad · contacto
DINAMICO