Acordes de Guitarra » E »Esperanza de vida » Todo el mundo sabrá (Tab)

Todo el mundo sabrá
Esperanza de vida

Letras, Notas, Punteos, Tablaturas y Acordes de Guitarra (Tabs & Chords)

  • Tablatura
    ----------------------------------------------------------------------------
    
    
    Tonalidad: A
    
    
    Intro (x3):
       F#m            A                  D          Bm
    G|-----------------------------------9-9-6-6--------------------|
    D|-4--4-4-6-6-7-7---7-7-9-9-11-11----7-7-7-7----11-11-7--7----4-|
    A|-4---------------------------------5-5-5-5----9--9--9--9----4-|
    E|-2--------------5-----------------------------7--7--7--7----2-|
    
    
    
    Verso:
    F#m                  E                     Bm
    Por los siglos reinarás con suprema autoridad
               D                 F#m
    Y toda nación Tu nombre cantará
    
  • Tablatura
    e----------------------------------------------
    b-------------------------------5x5------------
    g-----------------------4-4-6-6x----6-4-6x-6x6x-4-
    d-4x--4-4--6-6--7-7x-7-7-------------------------7-4-
    a-4x-----------------------------------------------
    E------------------------------------------------
    
    e--------------------------------------------
    b----------------------------5x5-------------
    g------------------4-4--6-6x-----6-4-6x-6x6x-4--
    d--4-4-6-6-7-7x-7-7----------------------------7-4-
    a---------------------------------------------
    E------------------------------------------
    
    e---------------------------------------------
    b-----------------------------5x5----------------
    g-------------------4-4--6-6x-----6-4-6x-6x6x-4--
    d--4-4-6-6-7-7x-7-7-----------------------------7-4-
    a--------------------------------------------
    E-----------------------------------------------
    
  • +
    ¡Colabora con nosotros!
    Envíanos tu versión de esta canción

Letra de Todo el mundo sabrá
Tonalidad: A
Verso:
Por los siglos reinarás con suprema autoridad
Y toda nación Tu nombre cantará
Tu poder no cesará Tu amor no acabará
Principio y final nunca cambiarás
Pre-Coro:
Mi Dioooooooos Por quién yo viviré mi Señooooooor a Tí exaltaré
Todo el mundo hoy sabrá que Jesús es la verdad
Por siempre Te alabarán
Tuyo es mi corazón
Verso:
Por los siglos reinarás con suprema autoridad |
Y toda nación Tu nombre cantará |
Tu poder no cesará Tu amor no acabará |
Principio y final nunca cambiarás
Pre-Coro:
Mi Dioooooooos Por quién yo viviré mi Señooooooor a Tí exaltaré
Todo el mundo hoy sabrá que Jesús es la verdad
Por siempre Te alabarán
Tuyo es mi corazón
Interlude:
Mi Dioooooooos Por quién yo viviré mi Señooooooor a Tí exaltaré
|Solo Batería|
Todo el mundo hoy sabrá que Jesús es la verdad
|Entrá guitarra|
Por siempre Te alabarán
Tuyo es mi corazón
Todo el mundo hoy sabrá que Jesús es la verdad
Por siempre Te alabarán
|
Tuyo es mi corazón |
|
Canción sacada de:
www.masmusicacristiana.com/grupo-esperanza-de-vida_todo-el-mundo-sabra.html
Por Favor Califiquen
E-mail: danieluchuk@gmail.com
https://www.facebook.com/GustavoDanielLuchukMachado
Manden sugerencias o peticiones sobre esta canción o para sacar otra, gracias.
GDLM
Paz. Sea para alabanza a Dios, Bendiciones...
Saludos desde Iglesia de Dios (7 Día). San Vicente, Misiones, Argentina.



© LaCuerda.net · Aviso Legal · Privacidad