Acordes de Guitarra » E »Esperanza de vida » Precioso Jesús (Tab)

Precioso Jesús
Esperanza de vida

Letras, Acordes y Tabs para Guitarra, Bajo y Ukulele

  • C#                G#/C
    Al contemplar tu obra en la cruz,
            A#m      F#       G#
    tanto amor derramado y todo por mí,
    C#                 G#/C
    con gratitud me quiero acercar,
           A#m      F#    G#
    sólo tengo mi vida, acéptala.
    
    Pre-estribillo:
             A#m      G#          F#
    No sé cómo expresarme ante tu hermosura
        A#m      G#         F#
    rodeada de gloria y poder.
          A#m     G#          F#
    Necesito decirte lo que siento ahora,
          D#m            F#    G#
    me acerco a ti, al Santo Lugar.
    
    Estribillo:
    
  •   Cadd9       Gmaj   Am    F    Csus2 G
    e----------|------|---0--|-0---|-x--|-0-
    b-------3--|----3-|---1--|-1---|-1--|-0--
    g-----0----|---0--|---2--|-2---|-0--|-0--
    d---2------|--0---|---2--|-3---|-0--|-0--
    a-3--------|-2----|------|-3---|-3--|-2--
    e----------|------|------|-----|----|-3--
    C                G
    Al contemplar tu obra en la cruz
           Am          F      G             C
    tanto amor derramado y todo por mí
                     G(natural)
    con gratitud me quiero acercar
            Am       F        G
    sólo tengo mi vida aceptala
    Am               G                  F
    No se cómo expresarme ante tu hermosura
    Am              G       F
    rodeada de gloria y poder
    Am             G          F
    
  • INTRO:   C# G# Bbm G#
    
    
    
    PARTE I
    C#                  G#
       Al contemplar tú obra en la cruz
           Bbm             G#
    Tanto amor derramado y todo por mí
    C#                   G#
       Con gratitud me quiero acercar
         Bbm           G#
    Sólo tengo mi vida aceptala
    
    
    
    
    PARTE II
          Bbm        G#        F#
    No se cómo expresarme ante tu hermosura
    
  • LA molestia D facilitarla A los q han kerido aprendercelo y n pueden..
    
    NOTA: lo q sta entre parentsis va varias veces y rapido..
    NOTA: escuchen bn la part 3 d st solo para q le agarren bn xq esa es
    LA part rapida..
    
    la base del solo son las mismas q usa el coro completo..
     F#-A#m-G# (x3) y al final D#m-F#-G#
    
    Part 1
    e.--------------------------------
    B.-------------------9------------
    G.-5-5h6-5~---6-6-8-8--6h8-6-8~---
    D.---------6s8--------------------
    A.--------------------------------
    E.--------------------------------
    
    Part 2
    e.-----------------------------------------------------
    B.--------------11-11-13s14-13-11-9-13-13-(131313)~~---
    
  • B:Bend
    h:hammer on
    p:Pull off
    ~:Vibrato
    r:release bend
    
    e-----------------------------------------------
    B-----------------------------------------------
    G-----------------------------------------------
    D------10h11-10h11-10h11p10---------------------
    A--/11----------------------11-11/13------------
    E-----------------------------------------------
    
    e-------------------------------------------------------------
    B-----------9-------------------------------------------------
    G----6-8-8b-----8br-8~----------------------------------------
    D--8--------------------------10h11-10h11-10h11p10------------
    A-------------------------/11----------------------11-11/13---
    E-------------------------------------------------------------
    
    
  • ------------------------------------------------------------------------------
    
    Tonalidad: C#
    
    
    
    
    Intro:
     C#            G#          A#m         F#      G#
    E|---------11----------11------------------------------------
    B|-------9----------9------------------11--------------------
    G|----10----------8------------8-10-10----10-8----------8----
    D|-11----------10-----------11--------------------10-11---10-
    
    
    
     C#          G#            A#m        F#       G#
    E---------11----------11------------------------------------|
    B-------9----------9------------------11--------------------|
    G----10----------8------------8-10-10----10-8----------8----|
    
  • +
    ¡Colabora con nosotros!
    Envíanos tu versión de esta canción

Letra de Precioso Jesús
Al contemplar tu obra en la cruz,
tanto amor derramado y todo por mí,
con gratitud me quiero acercar,
sólo tengo mi vida, acéptala.
Pre-estribillo:
No sé cómo expresarme ante tu hermosura
rodeada de gloria y poder.
Necesito decirte lo que siento ahora,
me acerco a ti, al Santo Lugar.
Estribillo:
Precioso Jesús, mi Redentor,
amado Señor, eres todo para mí.
Te adoraré cada día de mi vida,
no puedo vivir si no estás junto a mí.




[Precioso Jesús chords][Precioso Jesús cifra]
© LaCuerda.net · aviso legal · privacidad · es · en · pt · contacto