Acordes de Guitarra » E »Eruca Sativa » Queloquepasa (Tab)

Queloquepasa
Eruca Sativa

Letras, Notas, Punteos, Tablaturas y Acordes de Guitarra (Tabs & Chords)

  • Tablatura
    E|-------------------------------|
    B|-------------------------------|
    G|-------------------------------|
    D|-0--3-5-0--3-5-0--3-5-6--6--6--| X4
    A|-0--3-5-0--3-5-0--3-5-6--6--6--|
    D|-0--3-5-0--3-5-0--3-5-6--6--6--|
    
    
    .....
    
    
    Riff 1
    
    E|-------------------------------|
    B|-------------------------------|
    G|-------------------------------|
    D|-0--3-5-0--3-5-0--3-5-6--6--6--| X2
    A|-0--3-5-0--3-5-0--3-5-6--6--6--|
    D|-0--3-5-0--3-5-0--3-5-6--6--6--|
    
    
  • +
    ¡Colabora con nosotros!
    Envíanos tu versión de esta canción

Letra de Queloquepasa
D|-0--3-5-0--3-5-0--3-5-6--6--6--| X4
A|-0--3-5-0--3-5-0--3-5-6--6--6--|
D|-0--3-5-0--3-5-0--3-5-6--6--6--|
.....
Riff 1
D|-0--3-5-0--3-5-0--3-5-6--6--6--| X2
A|-0--3-5-0--3-5-0--3-5-6--6--6--|
D|-0--3-5-0--3-5-0--3-5-6--6--6--|
Queloquepasa? Queloquepasa? Queloquepasa?
Queloquepasa? Queloquepasa? Queloquepasa?
.....
Riff 1
D|-0--3-5-0--3-5-0--3-5-6--6--6--| X2
A|-0--3-5-0--3-5-0--3-5-6--6--6--|
D|-0--3-5-0--3-5-0--3-5-6--6--6--|
Queloquepasa? Queloquepasa? Queloquepasa?
Queloquepasa? Queloquepasa? Queloquepasa?
che che che che che che che che che che che che che
Aunque hablemos el mismo idioma
No te puedo entender
Riff 1 (la 2da vez tocar hasta el *)
*
D|-0--3-5-0--3-5-0--3-5-6--6--6--| X2
A|-0--3-5-0--3-5-0--3-5-6--6--6--|
D|-0--3-5-0--3-5-0--3-5-6--6--6--|
Ahhhhh
D|-0--3-5-0--3-5-0--3-5-0--|
A|-0--3-5-0--3-5-0--3-5-0--|
D|-0--3-5-0--3-5-0--3-5-0--|



© LaCuerda.net · Aviso Legal · Privacidad
DINAMICO