Acordes de Guitarra » E »Erick Porta » El poderoso está al lado de nosotros (Tab)

El poderoso está al lado de nosotros
Erick Porta

Letras, Acordes y Tabs para Guitarra, Bajo y Ukulele

  • INTRO: //Em Am Em Am Bm// C D Em
    
    
              Em
    ///El Poderoso está del lado de nosotros
            Am        Em
    y al enemigo, el Señor derribará.
    Em
    Con alabanzas, con panderos y con danzas,
           Am    D/B Em
    las murallas caerán.///
    
    
                Em-D-Em         G-Am-Em
    //Ahora griten,   ahora griten.
           Am         Em
    Y los muros el Señor derribará.
           Em-D-Em          G-Am-Em
    Ahora dancen, ahora dancen.
             Am   D/B    Em
    
  • INTRO: //Em Am Em Am Bm// C D Em
    
    E|-------19------------------|
    B|-15-17----17-15-17b--15-17-|
    
    //
    e|--------------------------------------------------------7-8-7-8-7-|
    B|------------------------------------------10-10-10-8-10-----------|
    G|---9-11-12-11-9-11-12-11--9-11-12-11-9--9-------------------------|
    D|-9----------------------------------------------------------------|
    
    e|----------------------------------------------------------14-|
    B|------------------------------------------10-10-10-8-8-------|
    G|---9-11-12-11-9-11-12-11--9-11-12-11-9--9--------------9-----|
    D|-9-----------------------------------------------------------|//
    
    
              Em
    ///El Poderoso está del lado de nosotros
            Am        Em
    
  • +
    ¡Colabora con nosotros!
    Envíanos tu versión de esta canción

Letra de El poderoso está al lado de nosotros
///El Poderoso está del lado de nosotros
y al enemigo, el Señor derribará.
Con alabanzas, con panderos y con danzas,
las murallas caerán.///
//Ahora griten, ahora griten.
Y los muros el Señor derribará.
Ahora dancen, ahora dancen.
Y la victoria nos dará.//
MUSICA: //Em Am Em Am Bm// C D Em
///El Poderoso está del lado de nosotros
y al enemigo, el Señor derribará.
Con alabanzas, con panderos y con danzas,
las murallas caerán.///
//Ahora griten, ahora griten.
Y los muros el Señor derribará.
Ahora dancen, ahora dancen.
Y la victoria nos dará.//
MUSICA: //Em Am Em Am Bm// C D Em
////Ahora griten, ahora griten.
Y los muros el Señor derribará.
Ahora dancen, ahora dancen.
Y la victoria nos dará.////
Esta es una colaboración de Jhose Gómez pianista principal
de la Iglesia Congregacional Pentecostés Visión Cristiana
en el municipio de Acuitzio Del Canje Michoacán




[El poderoso está al lado de nosotros chords][El poderoso está al lado de nosotros cifra]
© LaCuerda.net · aviso legal · privacidad · es · en · pt · contacto