Acordes de Guitarra » E »Enigma » Amor de 4 paredes (Tab)

Amor de 4 paredes
Enigma

Letras, Acordes y Tabs para Guitarra, Bajo y Ukulele

  • G
    e|----5-----|
    B|-----6----|
    G|------7---|
    D|------7---|
    A|----5-----|(bajo primario)
    E|----5-----|(bajo secundario)
    
    C
    e|----------|
    B|------7---|
    G|---4------|
    D|----5-----|(bajo primario)
    A|----------|
    E|----------|
    (el bajo secundario es en la 5ta cuerda
    en el quinto traste, solo se toca esa nota
    para el bajeo)
    
    D
    
  • A/-------1-3-1--1--1-1-1--1-5-5-----/
    F/-4-4-4-2-4--------------------3-3-/
    C/-5-5-5------------------------4-4-/
    G/----------------------------------/
    D/----------------------------------/(x2)
    
    d/---------0-------0-0-----------/
    A/-----3-3-1-3-1---1-1-3-3-1-1---/
    F/-4-4-4-4---4-2-4-----4-4-2-2-4-/
    C/-5-5-----------5-------------5-/
    G/-------------------------------/
    D/-------------------------------/
    
    
    G                             C
    Desde el primer momento en que te vi
    D                G
    Me robaste la mirada
                       C
    Y como un loco te segui
    
  • +
    ¡Colabora con nosotros!
    Envíanos tu versión de esta canción

Letra de Amor de 4 paredes
(el bajo secundario es en la 5ta cuerda
en el quinto traste, solo se toca esa nota
para el bajeo)
(el bajeo secundario es igual que
en el acorde anterior, en la 5ta cuerda
pero en el 7mo traste, igual solo se toca
esa nota para el bajeo)
Desde el primer momento en que te vi
Me robaste la mirada
Y como un loco te segui
Para ver como te hablaba
Y enamorado quede
De tu hermosura y tu mirada
Nacio un amor tan bonito
Se entendieron nuestras almas
Y aunque no nos pertenecemos
En el amor no se manda
Amor de cuatro paredes
Nadie tiene que saberlo
Yo por ti me estoy muriendo
Y aunque pase lo que pase
Seras mia aunque sea en silencio
Nacio un amor tan bonito
Se entendieron nuestras almas
Y aunque no nos pertenecemos
En el amor no se manda
Amor de cuatro paredes
Nadie tiene que saberlo
Yo por ti me estoy muriendo
Y aunque pase lo que pase
Seras mia aunque sea en silencio
espero me entendieran xD
es la primera vez q subo
una cancion xD
suerte(:

Video de Amor de 4 paredes
[]




[Amor de 4 paredes chords][Amor de 4 paredes cifra]
© LaCuerda.net · aviso legal · privacidad · es · en · pt · contacto