Tablatura para Guitarra de Enanitos Verdes: Mejor no hablemos de Amor
Conexión · Inscripción
Letras y Acordes
Pantalla Completa
Imprimir
Versión Texto
Añadir Favorito
Otras Versiones

Mostrar Diagramas
Desfile Automático
Manipular Acordes
Formato del Texto


Mejor no hablemos de Amor(TAB)

Enanitos Verdes

calidad:
enan0485
AUTOR: Felipe Staiti
ALBUM: Big Bang (1994)
Enviado por Cabrera
Solo al final




E||------|------|------|------|------|------|------------0-----0-----0-|
B||------|------|------|------|------|------|----------4---4-2---4-2---|
G||------|------|------|------|------|------|--------------------------|
D||------|------|------|------|------|------|--------------------------|
A||------|------|------|------|------|------|--------------------------|
E||------|------|------|------|------|------|--------------------------|



------------------|------------------|------------------|
------------------|------------------|------------------|
------------------|------------------|------------------|
------------------|------------------|------------------|
------------------|------------------|------------------|
------------------|------------------|------------------|



----------x-x-----x-x----16-|----14--12--14------14h16p14~-|
--------------x-x-----14----|------------------------------|
----------------------------|------------------------------|
----------------------------|------------------------------|
----------------------------|------------------------------|
----------------------------|------------------------------|



--------12--------12--|------14--14r-----12-14b--|--------------19--16--|
----------------------|--------------------------|----------------------|
----------------------|--------------------------|----------------------|
----------------------|--------------------------|----------------------|
----------------------|--------------------------|----------------------|
----------------------|--------------------------|----------------------|



-----------------------------|--------------------|------7--7----7--7--2h4-|
----19-17-19--------20b---17-|--------------------|------------------------|
-----------------------------|---18~--------------|------------------------|
-----------------------------|--------------------|------------------------|
-----------------------------|--------------------|------------------------|
-----------------------------|--------------------|------------------------|



------2-0--2h4p2----7----|--2h4p2---------------|-----||
-------------------------|----------------------|-----||
-------------------------|----------------------|-----||
-------------------------|----------------------|-----||
-------------------------|----------------------|-----||
-------------------------|----------------------|-----||
Este fichero es trabajo propio de su transcriptor y representa su interpretación personal de la canción. El material contenido en esta página es
para exclusivo uso privado, por lo que se prohibe su reproducción o retransmisión, así como su uso para fines comerciales.

© LaCuerda.net · Aviso Legal · Privacidad