Acordes de Guitarra » E »Electrodomésticos » Has sabido sufrir (Tab)

Has sabido sufrir
Electrodomésticos

Letras, Acordes y Tabs para Guitarra, Bajo y Ukulele

  • Cm A# G# G
    
    
              Cm
    Sé que te quiero y no puedo defenderme,
                     A#
    esconderme de tu santo y ardiente corazón
           G#
    Y no merezco los suspiros de tu cuerpo
                    G
    al volarme en pedazos tu rojo corazón
    
    
               Cm
    Sé que tus labios van despacio en los brazos
                        A#
    de tu encanto de tu santo y ardiente corazón
              G#
    Sé que mi vida no respira las sonrisas
                             G
    
  • esta es la introducion y tambien se toca despues del coro.
    
    (~): dejar sonando un poco.
    
    e|----------------------------------------------------------------------
    b|-8-8-8-8-----8--8---8-8--8---8---8---8-8~-6-6~-4-6-4-6-8-6~-6-6-6-----
    g|---------8-8--8---8----8---8---8---8----------------------------------
    d|----------------------------------------------------------------------
    a|----------------------------------------------------------------------
    e|----------------------------------------------------------------------
    
    e|---------------------------6-4~-3-3--1-3-1-3-4-3----------------------
    b|-4-----4--4---4-4--4---4----------------------------------------------
    g|---5-5--5---5----5---5---5--------------------------------------------
    d|----------------------------------------------------------------------
    a|----------------------------------------------------------------------
    e|----------------------------------------------------------------------
    
    
    Esto va justo
  • +
    ¡Colabora con nosotros!
    Envíanos tu versión de esta canción

Letra de Has sabido sufrir
Sé que te quiero y no puedo defenderme,
esconderme de tu santo y ardiente corazón
Y no merezco los suspiros de tu cuerpo
al volarme en pedazos tu rojo corazón
Sé que tus labios van despacio en los brazos
de tu encanto de tu santo y ardiente corazón
Sé que mi vida no respira las sonrisas
de tus brisas haciendo haciendo el amor
Has sabido sufrir,
subir al cielo a no dormir
Es tanto el dolor de tus labios,
es tal la ternura que hay en tu mirar
Voy a pelearte, revolverte, removerte,
encenderte hasta los llantos, ardiente corazón
Voy a desearte contra todo, contra el lodo,
contra vuestro compromiso, con el mayor dolor
Serás la furia de la vida reprimida,
consumida por los días, ardiente interior
Serás un día despedida, amanecida,
recibida entre los hombres, valiente corazón
Has sabido sufrir,
subir al cielo a no dormir
Es tanto el dolor de tus labios,
es tal la ternura que hay en tu mirar

Video de Has sabido sufrir
[]




[Has sabido sufrir chords][Has sabido sufrir cifra]
© LaCuerda.net · aviso legal · privacidad · es · en · pt · contacto