Acordes de Guitarra » E »Edgar Lira » El camino de los mártires (Tab)

El camino de los mártires
Edgar Lira

Letras, Notas, Punteos, Tablaturas y Acordes de Guitarra (Tabs & Chords)

  • Tablatura
    Aqui etsa el intro del disco morir a mi.
    
    e--------------------------------------------------
    B---------------------------10---------------------
    G-------------7---9s11-9-11----12p11----9s11-9-----
    D------9-9--7---9--------------------12------------
    A--9s7---------------------------------------------
    E--------------------------------------------------
    
    aqui en esta parte es cuando empieza a hablar...
    
    Desde los dias de juan el bautista...
    
    ... lo arrebatan
    e------------------------------
    B----------/10-----------------
    G--------------12p11----9s11-9-
    D--------------------12--------
    A------------------------------
    E------------------------------
    
    e-/15-14-12-12s14--------------------------------------
    B-----------------12-12s15--13p12----13-12------13s15--
    G---------------------------------12-------14-12-------
    D------------------------------------------------------
    A------------------------------------------------------
    E------------------------------------------------------
    
    Y ellos h
  • +
    ¡Colabora con nosotros!
    Envíanos tu versión de esta canción





© LaCuerda.net · Aviso Legal · Privacidad
DINAMICO