Acordes de Guitarra » D »Duo Pata Amarilla » Lejos de tí (Tab)

Lejos de tí
Duo Pata Amarilla

Letras, Acordes y Tabs para Guitarra, Bajo y Ukulele

  • F#m D A E x2
    
    F#m                     D
    Hace tiempo que mi vida no tiene valor
    F#m                        D                 A
    Será porque dentro mío llevo un  gran dolor
                         E  B
    Tú decidiste no volver
                     F#m   E
    Aquella noche yo morí
    
    F#m                    D             A
    Desde esa noche nunca más volví a reír
    F#m                     D              A
    Llevo dentro el castigo de no serte fiel
                              E  B
    Parece que ahora si entendí
                            F#m    E       A
    Que te he perdido para siempre
    
    
  • F#m
    GUITARRA
    F#m D A E
    GUITARRA - QUENA
    F#m D A E F#m
    
    Hace tiempo que mi vida no tiene valor
    F#m                                 D
    Será porque dentro mío llevo un  gran dolor
    F#m                                      D  A
    Tú decidiste no volver
                        E   Bm
    Aquella noche yo morí
                        A E
    
    Desde esa noche nunca más volví a reír
    F#m                                 D
    Llevo dentro el castigo de no serte fiel
    F#m                                    D  A
    Parece que ahora si entendí
    
  •       F#m         F#m            F#m            D              A
    e|---------------------------2-4-5-4-2------2-4-5-4-2--------2-4-5-2-|
    B|-------------------------------------------------------------------|
    G|------2---------2--------------------------------------------------|
    D|-2/4----4---2/4----4-----------------------------------------------|
    A|-2/4----4---2/4----4-----------------------------------------------|
    E|-------------------------------------------------------------------|
           E                         F#m  Fm
    e|---------5-5/4--5-5/7----------2-2-1/2------------------|
    B|-------5--------7-7/9----------2-2-1/2------------------|
    G|--2/6--------------------------2-2-1/2------------------|
    D|-------------------------------4-4-3/4------------------|
    A|-------------------------------4-4-3/4------------------|
    E|-------------------------------2-2-1/2------------------|
    
    F#m D A E x2
    
    F#m                     D
    Hace tiempo que mi vida no tiene valor
    F#m                        D                 A
    
  •            F#m        D        A              E
    E|--2-4-5-4-2--2-4-5-4-2--2-4-5-4--------------5-4-5-7-
    B|--------------------------------5-3-2--5-7-7---------
    G|-----------------------------------------------------
    D|-----------------------------------------------------
    A|-----------------------------------------------------
    E|-----------------------------------------------------
    /
    
              F#m         D        A             E
    E|--2-4-5-4-2--2-4-5-4-2--2-4-5-4-----------------2-----
    B|--------------------------------5-3-2-------5-5---5---
    G|--------------------------------------4-2-4-----------
    D|------------------------------------------------------
    A|------------------------------------------------------
    E|------------------------------------------------------
    /
    
    
    E|--A
    
  •       F#m         F#m
    e|--------------------------|
    B|--------------------------|
    G|------2---------2---------|
    D|-2/4----4---2/4----4------|
    A|-2/4----4---2/4----4------|
    E|--------------------------|
    
    
    
    e|--2-4-5-4-2-2-2-2-2---2-4-5-4-2-2-2-2-2----2-4-5-2-0-|
    B|----------------------------------------------------2|
    G|-----------------------------------------------------|
    D|-----------------------------------------------------|
    A|-----------------------------------------------------|
    E|-----------------------------------------------------|
    
    
           E                         F#m  Fm
    e|---------5-5/4--5-5/7----------2-2-1/2------------------|
    
  • +
    ¡Colabora con nosotros!
    Envíanos tu versión de esta canción
  • Tutorial
    HD
    explicacion LEJOS DE TI - pata amarilla - intro rasgueo
    4:11

Letra de Lejos de tí
Hace tiempo que mi vida no tiene valor
Será porque dentro mío llevo un gran dolor
Tú decidiste no volver
Aquella noche yo morí
Desde esa noche nunca más volví a reír
Llevo dentro el castigo de no serte fiel
Parece que ahora si entendí
Que te he perdido para siempre
Como te digo que me enseñes a vivir
Si cada noche me muero de recordar
Tu gran amor
Tu triste adiós
Hay tu cariño, Aun vive en mí
No puedo más
Vivir sin ti
Lejos de ti, Voy a morir
Lejos de ti, Voy a morir
Hay como duele, Vivir sin ti x2
REPITE TODO
saludos para la ESTUNI - UNCP
HUANCAYO Y LA OROYA
FRALOHU




[Lejos de tí chords][Lejos de tí cifra]
© LaCuerda.net · aviso legal · privacidad · es · en · pt · contacto