Acordes de Guitarra » D »Duo Libano » Te Alabo (Tab)

Te Alabo
Duo Libano

Letras, Acordes y Tabs para Guitarra, Bajo y Ukulele

  • E|---------------2-4-5-5---5-4-2-4-2-0-----0---0-----------------------
    B|-------2-3-5------------------------------------3---3-2--2-0-2-3-0---
    G|-2-4-----------------------------------------------------------------
    D|---------------------------------------------------------------------
    A|---------------------------------------------------------------------
    E|---------------------------------------------------------------------
    
    E|--5-4-2----4-2--------------------------------
    B|----------5------5-3-5-3-2-0-2-0--------------
    G|--------------------------------------2-1-2---
    D|----------------------------------------------
    A|----------------------------------------------
    E|----------------------------------------------
    
    E|---------0-------0--------------------
    B|---2-3----3-2----2--------------------
    G|---------------------2----------------
    D|--------------------------------------
    A|--------------------------------------
    E|--------------------------------------
    
  • +
    ¡Colabora con nosotros!
    Envíanos tu versión de esta canción
  • Tutorial
    HD
    Dúo Líbano(te alabó mi señor)
    tutorial
    11:32

Letra de Te Alabo
Te alabo mi señor yo te alabo,
Porque tú eres el todo para mí.
Porque junto a ti voy caminando
Tu presencia yo siento en mi ser.
“coro”
Te alabo, te alabo
Y mi alma no se cansa de alabarte
Te alabo, te alabo
Mientras vida exista en mi ser.
A veces el enemigo quiere
a mi alma volver aprisionar
Y el espíritu santo que es mi guía
Me sostiene y no me deja claudicar.
“Coro”
Te alabo en las pruebas más difíciles
En la angustia, la tristeza y el dolor
Porque junto a ti voy caminado
Porque ciento tu presencia en mi ser.
Adorno
Saludos soy amigo Luis
Cualquier duda al correo
ariesnoshion23@gmail.com

Video de Te Alabo
[]




[Te Alabo chords][Te Alabo cifra]
© LaCuerda.net · aviso legal · privacidad · es · en · pt · contacto
DINAMICO