Tablatura para Guitarra de División Minúscula: Nuestro Crimen
Conexión · Inscripción
Letras y Acordes
Pantalla Completa
Imprimir
Versión Texto
Añadir Favorito
Otras Versiones

Mostrar Diagramas
Desfile Automático
Manipular Acordes
Formato del Texto


Nuestro Crimen(TAB)

División Minúscula

calidad:
dmin0331
AUTOR: Javier Blake
ALBUM: Sirenas (2009)
Enviado por ricardo
INTRO

guitarra 1
e|-------------------------------------------------|
B|----14-13----14-13----14-13----14-13----14----14-|
G|-10-------10-------10-------10-------10----10----|x8
D|-------------------------------------------------|
A|-------------------------------------------------|
D|-------------------------------------------------|

guitarra 2
e|-------------------------------------------------
B|-------------------------------------------------
G|-6-----------------6------------------6----------
D|-6--------3--------6--------3----1----6--------3-
A|-4--------3--------4--------3----1----4--------3-
D|----------3-----------------3----1-------------3-

guitarra 1
e|-------------------------------------------------------
B|-11-11-11-11--13-13-13-13--14-14-14-14--13-13-13-------
G|--x--x--x--x---x--x--x--x---x--x--x--x---x--x--x--13~--
D|--8--8--8--8--10-10-10-10--11-11-11-11--10-10-10---x~--
A|--------------------------------------------------11~--
D|-------------------------------------------------------

guitarra 2
e|--------------------------------
B|--------------------------------
G|----------------------6~----6~--
D|--88888888-6666-888---6~----6~--
A|--66666666-4444-666---4~----4~--
D|--------------------------------




VERSO
guitarra 1
e|-----------|----------|----------|--------|
B|-----------|----------|----------|--------|
G|-----------|----------|----------|--------|
D|-8-8-10-6--|8-8-10-6--|8-8-10-6--|6-6-8-6-| x4
A|-----------|----------|----------|--------|
D|-----------|----------|----------|--------|
hay una corriente de aire extraña..



guitarra 1
e|-------------------------------------------------|
B|----14-13----14-13----14-13----14-13----14----14-|
G|-10-------10-------10-------10-------10----10----|x6
D|-------------------------------------------------|
A|-------------------------------------------------|
D|-------------------------------------------------|

guitarra 2
e|-------------------------------------------------
B|-------------------------------------------------
G|-6-----------------6------------------6----------
D|-6--------3--------6--------3----1----6--------3-
A|-4--------3--------4--------3----1----4--------3-
D|----------3-----------------3----1-------------3-

guitarra 1
e|-----------------------------------------------------------
B|-11-11-11-11--13-13-13-13--14-14-14-14--13-13-13-----------
G|--x--x--x--x---x--x--x--x---x--x--x--x---x--x--x--13~--13~-
D|--8--8--8--8--10-10-10-10--11-11-11-11--10-10-10---x~---x~-
A|--------------------------------------------------11~--11~-
D|-----------------------------------------------------------

guitarra 2
e|--------------------------------
B|--------------------------------
G|----------------------6~----6~--
D|--88888888-6666-5555--6~----6~--
A|--66666666-4444-3333--4~----4~--
D|--------------------------------




guitarra 1
e|-----------|----------|----------|--------|
B|-----------|----------|----------|--------|
G|-8-8-10-6--|8-8-10-6--|8-8-10-6--|6-6-8-6-|x4
D|-----------|----------|----------|--------|
A|-----------|----------|----------|--------|
D|-----------|----------|----------|--------|
he detectado huellas que involucran...



guitarra 1
e|-------------------------------------------------|
B|----14-13----14-13----14-13----14-13----14----14-|
G|-10-------10-------10-------10-------10----10----|x6
D|-------------------------------------------------|
A|-------------------------------------------------|
D|-------------------------------------------------|

guitarra 2
e|-------------------------------------------------
B|-------------------------------------------------
G|-6-----------------6------------------6----------
D|-6--------3--------6--------3----1----6--------3-
A|-4--------3--------4--------3----1----4--------3-
D|----------3-----------------3----1-------------3-

guitarra 1
e|--------------------------------------------------------------
B|-11-11-11-11--13-13-13-13--14-14-14-14--13-13-13--16-16-16-16-
G|--x--x--x--x---x--x--x--x---x--x--x--x---x--x--x---x--x--x--x-
D|--8--8--8--8--10-10-10-10--11-11-11-11--10-10-10--13-13-13-13-
A|--------------------------------------------------------------
D|--------------------------------------------------------------

guitarra 2
e|----------------------
B|----------------------
G|----------------------
D|--88888888-6666-8888--
A|--66666666-4444-6666--
D|----------------------



guitarra 1
e|----------------------------------------
B|-9----9-9-11-11-11-9----9-9-11-11-9-9-9- x3
G|----------------------------------------

e|------------------------------------------------
B|-9-9-9-9--11-11-11-11--13-13-13-13--14-14-14-14-
G|------------------------------------------------

e|----------------------------------------
B|-9----9-9-11-11-11-9----9-9-11-11-9-9-9- x3
G|----------------------------------------

e|------------------------------------------------------
B|-9-9-9-9--11-11-11-11--13-13-13-13--14-14--13-14-16~~-
G|------------------------------------------------------

guitarra 2
e|----------------------------------------------
B|----------------------------------------------
G|----------------------------------------------
D|-3333--6666--3333--6665--3333--6666--88888888- x2
A|-3333--4444--3333--4443--3333--4444--66666666-
D|-3333--------3333--------3333-----------------

e|------------------------------------|-------------
B|------------------------------------|-------------
G|-6-----------------6----------------|--6----------
D|-6--------3--------6--------3----1--|--6--------3-
A|-4--------3--------4--------3----1--|--4--------3-
D|----------3-----------------3----1--|-----------3-
                                      |en esta parte entra
                                      |la otra guitarra..
Guitarra 1
e|---------------------------|
B|---------------------------|
G|---------------------------|
D|-8-8--10-10--11-11--10-10--| x4
A|---------------------------|
D|---------------------------|

guitarra 1
e|--------------------------------------------------------------
B|-11-11-11-11--13-13-13-13--14-14-14-14--13-13-13--16-16-16-16-
G|--x--x--x--x---x--x--x--x---x--x--x--x---x--x--x---x--x--x--x-
D|--8--8--8--8--10-10-10-10--11-11-11-11--10-10-10--13-13-13-13-
A|--------------------------------------------------------------
D|--------------------------------------------------------------

guitarra 2
e|----------------------
B|----------------------
G|----------------------
D|--88888888-6666-888---
A|--66666666-4444-666---
D|----------------------




guitarra 1
e|----------------------------------------|
B|-9----9-9-11-11-11-9----9-9-11-11-9-9-9-| x3   ------|
G|----------------------------------------|            |
                                                       |x3
e|------------------------------------------------|    |
B|-9-9-9-9--11-11-11-11--13-13-13-13--14-14-14-14-| ---|
G|------------------------------------------------|


e|----------------------------------------|
B|-9----9-9-11-11-11-9----9-9-11-11-9-9-9-| x3
G|----------------------------------------|

e|------------------------------------------------------
B|-9-9-9-9--11-11-11-11--13-13-13-13--14-14--13-14-16~~-
G|------------------------------------------------------

guitarra 2
e|----------------------------------------------    ---
B|----------------------------------------------    ---
G|----------------------------------------------    6~~
D|-3333--6666--3333--6665--3333--6666--88888888- x4 6~~
A|-3333--4444--3333--4443--3333--4444--66666666-    4~~
D|-3333--------3333--------3333-----------------    ---
Este fichero es trabajo propio de su transcriptor y representa su interpretación personal de la canción. El material contenido en esta página es
para exclusivo uso privado, por lo que se prohibe su reproducción o retransmisión, así como su uso para fines comerciales.

© LaCuerda.net · Aviso Legal · Privacidad