Acordes de Guitarra » D »Diomedes Diaz » Sin medir distancia (Tab)

Sin medir distancia
Diomedes Diaz

Letras, Acordes y Tabs para Guitarra, Bajo y Ukulele

  •  Eb                                        Bb
    La herida que siempre llevo en el alma no cicatriza
      Fm           Bb                       Eb
    inevitable me marca la pena que es infinita
        Eb                                        Bb
    quisiera volar muy lejos muy lejos sin rumbo fijo
        Fm               Bb                        Eb
    buscar un lugar del mundo sin odio vivir tranquilo
    
       Eb             Fm          Bb7                  Eb
    eliminar las tristezas, las mentiras y las traiciones
          Cm                 Fm               Bb7
    no importa que nunca encuentre el corazón
                  Eb
    lo que ha buscado de verdad
    
    Eb7               Ab                   Bb
       no importa el tiempo que ya es muy corto
                   Eb
    en las ansias largas de vivir
    
  • A                                               E
    La herida que siempre llevo en el alma no cicatriza
     D             E                        A
    inevitable me marca la pena que es infinita
                                                  E
    quisiera volar muy lejos muy lejos sin rumbo fijo
     D                   E                         A
    buscar un lugar del mundo sin odio vivir tranquilo
    
                      E                            A
    Eliminar las tristezas, las mentiras, las traiciones
                            E
    no importa que nunca encuentre el corazón
                 A             A7
    lo que ha buscado de verdad
    
                   D                    E
    No importa el tiempo que ya es muy corto
                   A
    en las ansias largas de vivir
    
  • este es el verdadero punteo d la cancion
    E|---8----6---6---4---4---3---4---
    B|-------------------------------
    G|-----------------------
    D|------------------------------
    A|-------------------------------
    E|--------------------------------
    /
    
    E|-------3---4---6---4---3---
    B|---6----------------------
    G|-------------------
    D|------------------------
    A|--------------------------
    E|---------------------------
    /
    
    E|---4----3---3-------------------
    B|----------------6---6---4---6--
    G|---------------------------
    D|--------------------------
    A|-------------------------------
    E|--------------------------------
    /
    
    E|---------------3------------
    B|---3---4---6-------6----4----
    G|----------------------------
    D|---------------------------
    A|---------------------------
    E|----------------------------
    /
  • E|----8----6---6---4---4---3---4---
    B|-------------------------------
    G|---8-----7---7---5---5---3---5-
    D|------------------------------
    A|-------------------------------
    E|--------------------------------
    /
    
    E|--------------------------------
    B|---6---8---9---11--9/11----8----
    G|--------------------------------
    D|---6---8---10--12--10/12---8----
    A|--------------------------------
    E|--------------------------------
    /
    
    E|------------------------------
    B|---9----8--8---6---6---4---6--
    G|---------------------------
    D|---10---8--8---6---6---5---6-
    
  • E|----8----6---6---4---4---3---4---
    B|-------------------------------
    G|---8-----7---7---5---5---3---5-
    D|------------------------------
    A|-------------------------------
    E|--------------------------------
    /
    
    E|--------------------------------
    B|---6---8---9---11--9/11----8----
    G|--------------------------------
    D|---6---8---10--12--10/12---8----
    A|--------------------------------
    E|--------------------------------
    /
    
    E|------------------------------
    B|---9----8--8---6---6---4---6--
    G|---------------------------
    D|---10---8--8---6---6---5---6-
    
  • +
    ¡Colabora con nosotros!
    Envíanos tu versión de esta canción
  • Tutorial
    Sin medir distancias (tutorial)
    - Punteo - Guitarra Vallenata
    1:25
  • Tutorial
    Sin medir distancias - Acompañamiento - Guitarra Vallenata
    2:25

Letra de Sin medir distancia
La herida que siempre llevo en el alma no cicatriza
inevitable me marca la pena que es infinita
quisiera volar muy lejos muy lejos sin rumbo fijo
buscar un lugar del mundo sin odio vivir tranquilo
eliminar las tristezas, las mentiras y las traiciones
no importa que nunca encuentre el corazón
lo que ha buscado de verdad
no importa el tiempo que ya es muy corto
en las ansias largas de vivir
cualquier minuto de placer
será sentido en realidad
si lleno el alma, si lleno el alma
de eternidad (bis)
Es muy triste recordar momentos felices
de^un cariño que sangró mi corazón
llego la^hora de partir sin medir distancias
y ni sombras quedarán de aquel amor [bis]
EL RESTO DE LA CANCION SE TOCA CON LOS MISMOS ACORDES.




[Sin medir distancia chords][Sin medir distancia cifra]
© LaCuerda.net · aviso legal · privacidad · es · en · pt · contacto