Acordes de Guitarra » D »Diego Torres » No lo soñé (Tab)

No lo soñé
Diego Torres

Letras, Notas, Punteos, Tablaturas y Acordes de Guitarra (Tabs & Chords)

  • Letra y Acordes
         C     Am  ru      F         G   ru
     e --x--t---x-(3)---t--3-3----t--x---3-t--+
     B --0--t---1-------t--1-1----t--3---3-t--+
     G --0--t---0-------t--2-2----t--4---4-t--+
     D --x--t---x-------t--x-x----t--x---3-t--+
     A --3--t---0-------t--x-x----t--x---5-t--+
     E --x--t---x-------t--1-1----t--3---3-t--+
    
     Entre riff 1 y 2
     (IV) 0~2 (III) 0-0
    
     Riff 2
     ******
    
         G     Am  ru    F         G   ru
     e --x--t---x-(3)----t--x-->>--x----t--+
     B --0--t---1--------t--8-->>--3----t--+
     G --0--t---0--------t--0-->>--0----t--+
     D --2--t---x--------t--9-->>--x----t--+
     A --3--t---0--------t--10->>--x----t--+
    
  • Letra y Acordes
    Intro: C  G  x4
    
     C G                 C  G
    Hoy no tuve un buen dia
     C G               C   G
    voy perdido en la vida
              C                    G
    y comprendí que todo lo que decias
                  C    G
    solo eran mentiras
                     C                    G
    porque en la esquina de un bar yo te vi
                      C                  G
    que te estaban besando junto a la pared, por eso...
    
    
     C               G
    No me digas que yo lo soñé
     C               G
    no me digas 'yo no te engañé'
    
  • Tablatura
    --8--8---7-7--5-5---3/5-3--3/5----------------------
    -10-10---8-8--6-6--5------5-------------------------
    ----------------------------------------------------
    ----------------------------------------------------
    ----------------------------------------------------
    ----------------------------------------------------
    
    --8--8---7-7--5-5---3/5-3--3/5---3/5/3--------------
    -10-10---8-8--6-6--5------5------------3/5/3--------
    ---------------------------------------------0/2/0--
    ----------------------------------------------------
    ----------------------------------------------------
    ----------------------------------------------------
    
    
    
     F Em5 Am7*  C            F Em5 Am7* C
    Hoy      no tuve un buen dia
     F Em5 Am7* C             F Em5 Am7* C
    voy         perdido en la vida
    
  • +
    ¡Colabora con nosotros!
    Envíanos tu versión de esta canción

Letra de No lo soñé
Hoy no tuve un buen dia
voy perdido en la vida
y comprendí que todo lo que decias
porque en la esquina de un bar yo te vi
que te estaban besando junto a la pared, por eso...
No me digas que yo lo soñé
no me digas 'yo no te engañé'
no pretendas salvarte esta vez
que fuiste tú la que me hiciste perder.
Sos un ave de presa
que voló en mi cabeza
hiciste que yo te entregara
todo lo que querias de mi
y no pensaste que esas cosas te lastiman
y dejan heridas que te hacen sufirir, por eso...
Estribillo
no me pidas que vuelva si sé
que hoy lo nuestro ya no es como ayer
ya no tengo nada que perder
si no estas...conmigo esta vez
Y me pregunto si el dolor que siento
tendré que soportarlo mucho más
y si perder es parte de este juego
todo vuelve a empezar desde otro lugar
Estribillo
no me pidas que vuelva si sé
que hoy lo nuestro ya no es como ayer
ya no tengo nada que perder
si no estas...conmigo esta vez
'oh no...ya no tengo nada que perder' o cosas así



© LaCuerda.net · Aviso Legal · Privacidad