Acordes de Guitarra » D »Devendra Banhart » Mi Negrita (Tab)

Mi Negrita
Devendra Banhart

Letras, Acordes y Tabs para Guitarra, Bajo y Ukulele

  •           Em                                 D
    E|------------------------------------------------------------------------|
    B|-----------------------------------------------7------------7-----------|
    G|-7-6----6-6-7--9-9-7-6---6-6-7--9-9---7-6---------9-7-6---------9-7-6---|
    D|-----5--------------------------------------------------9-9----------9-9|
    A|------------------------------------------------------------------------|
    E|------------------------------------------------------------------------|
    
         Em                                D
    E|----------------------------------------10-9-7-------------------------|
    B|------------------------------------------------10-7/12----------------|
    G|---6-6-7--9-9--7-6----6-6-7--9-9--7-6-4--------------------------------|
    D|-----------------------------------------------------------------------|
    A|-----------------------------------------------------------------------|
    E|-----------------------------------------------------------------------|
    
     Em                 D
     Mi amor no tiene esperanza,
     Em          D
     aunque te esperará.
    
  • +
    ¡Colabora con nosotros!
    Envíanos tu versión de esta canción

Letra de Mi Negrita
Mi amor no tiene esperanza,
aunque te esperará.
Mi corazón se lanza.
Un fantasma corporreal.
Mi amor no tiene venganza,
aunque me matará.
Este viejo no se cansa,
siempre te perseguirá. Así­ que
Feo amor no necesito esperanza
Ven amor aquí
Feo amor no grita en mi lancha
Alrededor de ti.
Vertido en mi dolor
Negrita de mi amor)
Feo amor mosquito tan dandy
Fue un amor así
Feo amor no quita esperanza
Ven amor aquí
Ven amor, oh, oh, oh!
Mi amor no te hablo paja
Aunque no es la verdad
Mi abogado trabaja
Para que tú puedas descansar, así que
Feo amor no necesita esperanza
Ven amor aquí
Ven amor disfruta mi grasa
Alrededor de ti
oh,oh,oh,oh!
Feo amor, feo amor
Feo amor, feo amor!
Feo amor, feo amor
Feo amor, feo amor.

Video de Mi Negrita
[]




[Mi Negrita chords][Mi Negrita cifra]
© LaCuerda.net · aviso legal · privacidad · es · en · pt · contacto