Acordes de Guitarra » D »DeSaloon » Yo lloraré por tí (Tab)

Yo lloraré por tí
DeSaloon

Letras, Notas, Punteos, Tablaturas y Acordes de Guitarra (Tabs & Chords)

  • Letra y Acordes
    INTRO: Bm - A - F#m - E
    
    Bm  A     F#m            E      Bm    A
    Sí, sí me dijiste cuanto tiempo he de esperar
    
    F#m  E           F#m
    para romperte el corazón.
    
    Bm  A     F#m               E      Bm
    No, no me preguntes cuantas cosas pasarán
    
    A       F#m               E      F#m
    para encontrar un nuevo amor.
    
    
    Pre Coro:
    E                         Bm
    Si ésto es tan fácil para ti
                      F#m
    no digas nada para mi
    
  • Tablatura
    E----------------------------------------------------
    B----------------------------------------------------
    G----------------------9-9---------------------------
    D-------9-9--7-7--4-4--9-9--9-9--7-7--4--6--7--11----
    A-------9-9--7-7--4-4--7-7--9-9--7-7--4--6--7--11----
    E-------7-7--5-5--2-2-------7-7--5-5--2--4--5--9-----
    
    Riff Estrofa:
    
    
    E----------------------------------------------------
    B----------------------------------------------------
    G----------------------9-9---------------------------
    D-------9-9--7-7--4-4--9-9--9-9--7-7--4--6--7--11----  (x2)
    A-------9-9--7-7--4-4--7-7--9-9--7-7--4--6--7--11----
    E-------7-7--5-5--2-2-------7-7--5-5--2--4--5--9-----
    
    Sí, sí me dijiste cuanto tiempo he de esperar
    para romperte el corazón.
    No, no me preguntes cuantas cosas pasarán
    
  • +
    ¡Colabora con nosotros!
    Envíanos tu versión de esta canción

Letra de Yo lloraré por tí
Sí, sí me dijiste cuanto tiempo he de esperar
para romperte el corazón.
No, no me preguntes cuantas cosas pasarán
para encontrar un nuevo amor.
Pre Coro:
Si ésto es tan fácil para ti
no digas nada para mi
no digas nada más por mi.
Si ésto es tan fácil de decir
no pierdas tiempo más en mi
no pierdas tiempo más en mi.
Sí, sí me dijiste que te atrae mi decepción
no soy un santo, entiéndelo.
No, ya no me busques con tu trágico final
lo inevitable se acabó.
Pre Coro:
Si ésto es tan fácil para ti
no digas nada para mi
no digas nada más por mi.
Si ésto es tan fácil de decir
no pierdas tiempo más en mi
no pierdas tiempo más en mi aquí y ahora!
Despacio y sin razón dijiste al corazón
No puedo más, estoy cansado de llorar
Despacio y sin razón dijiste al corazón
No juego más, estoy cansada de llorar
¡Yo lloraré por ti!
Despacio y sin razón dijiste al corazón
No puedo más, estoy cansado de llorar
Despacio y sin razón dijiste al corazón
No juego más, estoy cansada de llorar
Aqui y ahora! (Pausa)
Yo lloraré por ti
Yo lloraré por ti
Yo lloraré por ti
Yo lloraré por ti
Final:



© LaCuerda.net · Aviso Legal · Privacidad